ISO-10303-21;
HEADER;
FILE_DESCRIPTION (( 'STEP AP203' ),
    '1' );
FILE_NAME ('31577.step',
    '2021-10-15T13:34:27',
    ( '' ),
    ( '' ),
    'SwSTEP 2.0',
    'SolidWorks 2019',
    '' );
FILE_SCHEMA (( 'CONFIG_CONTROL_DESIGN' ));
ENDSEC;

DATA;
#1 = APPLICATION_CONTEXT ( 'configuration controlled 3d designs of mechanical parts and assemblies' ) ;
#2 = PERSON_AND_ORGANIZATION ( #134, #71 ) ;
#3 =( NAMED_UNIT ( * ) PLANE_ANGLE_UNIT ( ) SI_UNIT ( $, .RADIAN. ) );
#4 = DATE_AND_TIME ( #159, #39 ) ;
#5 = PERSON_AND_ORGANIZATION ( #134, #71 ) ;
#6 = PERSON_AND_ORGANIZATION_ROLE ( 'design_supplier' ) ;
#7 = CARTESIAN_POINT ( 'NONE',  ( 1.016636224667855814E-15, -3.565879859032166325E-17, 0.2911761874129643601 ) ) ;
#8 = AXIS2_PLACEMENT_3D ( 'NONE', #164, #54, #148 ) ;
#9 = ADVANCED_FACE ( 'NONE', ( #124 ), #22, .T. ) ;
#10 = DIRECTION ( 'NONE',  ( -3.491481338843133355E-15, 1.224646799147353207E-16, -1.000000000000000000 ) ) ;
#11 = FACE_OUTER_BOUND ( 'NONE', #19, .T. ) ;
#12 = CARTESIAN_POINT ( 'NONE',  ( 1.316288464743861212E-13, 0.7999999999999963807, 37.69999999999999574 ) ) ;
#13 = AXIS2_PLACEMENT_3D ( 'NONE', #74, #153, #126 ) ;
#14 = CC_DESIGN_APPROVAL ( #108, ( #53 ) ) ;
#15 = APPROVAL_STATUS ( 'not_yet_approved' ) ;
#16 = APPLICATION_PROTOCOL_DEFINITION ( 'international standard', 'config_control_design', 1994, #98 ) ;
#17 = ADVANCED_FACE ( 'NONE', ( #107, #50 ), #49, .T. ) ;
#18 = PERSON_AND_ORGANIZATION_ROLE ( 'creator' ) ;
#19 = EDGE_LOOP ( 'NONE', ( #37 ) ) ;
#20 = CIRCLE ( 'NONE', #125, 0.7999999999999963807 ) ;
#21 = FACE_OUTER_BOUND ( 'NONE', #51, .T. ) ;
#22 = PLANE ( 'NONE',  #57 ) ;
#23 = CARTESIAN_POINT ( 'NONE',  ( 1.326762908760390423E-13, -4.653657836759941941E-15, 38.00000000000000000 ) ) ;
#24 = CC_DESIGN_PERSON_AND_ORGANIZATION_ASSIGNMENT ( #30, #18, ( #180 ) ) ;
#25 = VERTEX_POINT ( 'NONE', #95 ) ;
#26 = CARTESIAN_POINT ( 'NONE',  ( 1.016636224667855814E-15, -3.565879859032166325E-17, 0.2911761874129643601 ) ) ;
#27 = VERTEX_POINT ( 'NONE', #173 ) ;
#28 = DIRECTION ( 'NONE',  ( 4.275831445896958607E-31, 1.000000000000000000, 1.224646799147353207E-16 ) ) ;
#29 = ADVANCED_FACE ( 'NONE', ( #89 ), #121, .F. ) ;
#30 = PERSON_AND_ORGANIZATION ( #134, #71 ) ;
#31 = CALENDAR_DATE ( 2021, 15, 10 ) ;
#32 = CALENDAR_DATE ( 2021, 15, 10 ) ;
#33 = ORIENTED_EDGE ( 'NONE', *, *, #152, .T. ) ;
#34 = LOCAL_TIME ( 15, 34, 27.00000000000000000, #100 ) ;
#35 = EDGE_LOOP ( 'NONE', ( #72 ) ) ;
#36 = CC_DESIGN_PERSON_AND_ORGANIZATION_ASSIGNMENT ( #65, #176, ( #41 ) ) ;
#37 = ORIENTED_EDGE ( 'NONE', *, *, #91, .F. ) ;
#38 = CARTESIAN_POINT ( 'NONE',  ( 4.189777606611760026E-14, 5.999039130647391430E-33, 12.00000000000000000 ) ) ;
#39 = LOCAL_TIME ( 15, 34, 27.00000000000000000, #64 ) ;
#40 = FACE_OUTER_BOUND ( 'NONE', #181, .T. ) ;
#41 = SECURITY_CLASSIFICATION ( '', '', #102 ) ;
#42 =( LENGTH_UNIT ( ) NAMED_UNIT ( * ) SI_UNIT ( .MILLI., .METRE. ) );
#43 = EDGE_CURVE ( 'NONE', #27, #27, #154, .T. ) ;
#44 = DATE_TIME_ROLE ( 'classification_date' ) ;
#45 = LOCAL_TIME ( 15, 34, 27.00000000000000000, #47 ) ;
#46 = DATE_AND_TIME ( #32, #133 ) ;
#47 = COORDINATED_UNIVERSAL_TIME_OFFSET ( 1, 0, .AHEAD. ) ;
#48 = PERSON_AND_ORGANIZATION ( #134, #71 ) ;
#49 = CONICAL_SURFACE ( 'NONE', #158, 0.5000000000000009992, 0.7853981633974456145 ) ;
#50 = FACE_BOUND ( 'NONE', #70, .T. ) ;
#51 = EDGE_LOOP ( 'NONE', ( #161 ) ) ;
#52 = EDGE_CURVE ( 'NONE', #112, #112, #20, .T. ) ;
#53 = PRODUCT_DEFINITION_FORMATION_WITH_SPECIFIED_SOURCE ( 'ANY', '', #69, .NOT_KNOWN. ) ;
#54 = DIRECTION ( 'NONE',  ( -3.491481338843133355E-15, 1.224646799147353207E-16, -1.000000000000000000 ) ) ;
#55 = ORIENTED_EDGE ( 'NONE', *, *, #52, .F. ) ;
#56 = DIRECTION ( 'NONE',  ( -3.491481338843133355E-15, 1.224646799147353207E-16, -1.000000000000000000 ) ) ;
#57 = AXIS2_PLACEMENT_3D ( 'NONE', #38, #85, #182 ) ;
#58 = DIRECTION ( 'NONE',  ( 0.0000000000000000000, 1.000000000000000000, 0.0000000000000000000 ) ) ;
#59 = CARTESIAN_POINT ( 'NONE',  ( 0.0000000000000000000, 0.0000000000000000000, 0.0000000000000000000 ) ) ;
#60 = PRODUCT_RELATED_PRODUCT_CATEGORY ( 'detail', '', ( #69 ) ) ;
#61 = CYLINDRICAL_SURFACE ( 'NONE', #185, 0.7999999999999994893 ) ;
#62 = PERSON_AND_ORGANIZATION_ROLE ( 'creator' ) ;
#63 = PERSON_AND_ORGANIZATION ( #134, #71 ) ;
#64 = COORDINATED_UNIVERSAL_TIME_OFFSET ( 1, 0, .AHEAD. ) ;
#65 = PERSON_AND_ORGANIZATION ( #134, #71 ) ;
#66 = CC_DESIGN_PERSON_AND_ORGANIZATION_ASSIGNMENT ( #48, #62, ( #53 ) ) ;
#67 = CC_DESIGN_APPROVAL ( #160, ( #180 ) ) ;
#68 = EDGE_LOOP ( 'NONE', ( #165 ) ) ;
#69 = PRODUCT ( '31577', '31577', '', ( #94 ) ) ;
#70 = EDGE_LOOP ( 'NONE', ( #195 ) ) ;
#71 = ORGANIZATION ( 'UNSPECIFIED', 'UNSPECIFIED', '' ) ;
#72 = ORIENTED_EDGE ( 'NONE', *, *, #152, .F. ) ;
#73 = DIRECTION ( 'NONE',  ( 4.814824860968111528E-31, 1.000000000000000000, 1.355252715606886705E-16 ) ) ;
#74 = CARTESIAN_POINT ( 'NONE',  ( 1.316288464743861212E-13, -4.616918432785521081E-15, 37.69999999999999574 ) ) ;
#75 = DIRECTION ( 'NONE',  ( -4.814824860968111528E-31, -1.000000000000000000, -1.355252715606886705E-16 ) ) ;
#76 = CC_DESIGN_APPROVAL ( #101, ( #41 ) ) ;
#77 = CARTESIAN_POINT ( 'NONE',  ( 4.189777606611760026E-14, -1.469576158976823947E-15, 12.00000000000000000 ) ) ;
#78 = ADVANCED_FACE ( 'NONE', ( #162, #21 ), #203, .T. ) ;
#79 = VERTEX_POINT ( 'NONE', #12 ) ;
#80 = DIRECTION ( 'NONE',  ( 3.491481338843133355E-15, -1.224646799147353207E-16, 1.000000000000000000 ) ) ;
#81 = CIRCLE ( 'NONE', #170, 0.7999999999999978240 ) ;
#82 = APPROVAL_ROLE ( '' ) ;
#83 = PERSON_AND_ORGANIZATION_ROLE ( 'design_owner' ) ;
#84 = EDGE_CURVE ( 'NONE', #25, #25, #166, .T. ) ;
#85 = DIRECTION ( 'NONE',  ( 3.491481338843133355E-15, -1.224646799147353207E-16, 1.000000000000000000 ) ) ;
#86 = APPROVAL_PERSON_ORGANIZATION ( #177, #160, #82 ) ;
#87 = DIRECTION ( 'NONE',  ( -3.491481338843133355E-15, 1.224646799147353207E-16, -1.000000000000000000 ) ) ;
#88 = CARTESIAN_POINT ( 'NONE',  ( 1.326762908760390423E-13, -4.653657836759941941E-15, 38.00000000000000000 ) ) ;
#89 = FACE_OUTER_BOUND ( 'NONE', #68, .T. ) ;
#90 = DIRECTION ( 'NONE',  ( -3.491481338843133355E-15, 1.224646799147353207E-16, -1.000000000000000000 ) ) ;
#91 = EDGE_CURVE ( 'NONE', #167, #167, #81, .T. ) ;
#92 = MANIFOLD_SOLID_BREP ( 'Corps-Déplacer/Copier1[2]', #109 ) ;
#93 = MANIFOLD_SOLID_BREP ( 'Corps-Déplacer/Copier1[1]', #142 ) ;
#94 = MECHANICAL_CONTEXT ( 'NONE', #1, 'mechanical' ) ;
#95 = CARTESIAN_POINT ( 'NONE',  ( 4.189777606611760026E-14, 0.7999999999999963807, 12.00000000000000000 ) ) ;
#96 = DIRECTION ( 'NONE',  ( 4.275831445896958607E-31, 1.000000000000000000, 1.224646799147353207E-16 ) ) ;
#97 = PERSON_AND_ORGANIZATION ( #134, #71 ) ;
#98 = APPLICATION_CONTEXT ( 'configuration controlled 3d designs of mechanical parts and assemblies' ) ;
#99 = APPROVAL_DATE_TIME ( #192, #160 ) ;
#100 = COORDINATED_UNIVERSAL_TIME_OFFSET ( 1, 0, .AHEAD. ) ;
#101 = APPROVAL ( #15, 'UNSPECIFIED' ) ;
#102 = SECURITY_CLASSIFICATION_LEVEL ( 'unclassified' ) ;
#103 = EDGE_LOOP ( 'NONE', ( #197 ) ) ;
#104 = DESIGN_CONTEXT ( 'detailed design', #98, 'design' ) ;
#105 = AXIS2_PLACEMENT_3D ( 'NONE', #140, #56, #96 ) ;
#106 = DIRECTION ( 'NONE',  ( 0.0000000000000000000, 1.000000000000000000, 0.0000000000000000000 ) ) ;
#107 = FACE_OUTER_BOUND ( 'NONE', #35, .T. ) ;
#108 = APPROVAL ( #132, 'UNSPECIFIED' ) ;
#109 = CLOSED_SHELL ( 'NONE', ( #172, #78, #9 ) ) ;
#110 = DIRECTION ( 'NONE',  ( -3.491481338843133355E-15, 1.224646799147353207E-16, -1.000000000000000000 ) ) ;
#111 = DIRECTION ( 'NONE',  ( 1.000000000000000000, 0.0000000000000000000, 0.0000000000000000000 ) ) ;
#112 = VERTEX_POINT ( 'NONE', #171 ) ;
#113 = AXIS2_PLACEMENT_3D ( 'NONE', #26, #80, #75 ) ;
#114 = CARTESIAN_POINT ( 'NONE',  ( 0.0000000000000000000, 0.0000000000000000000, 0.0000000000000000000 ) ) ;
#115 = CALENDAR_DATE ( 2021, 15, 10 ) ;
#116 = DATE_AND_TIME ( #178, #135 ) ;
#117 = CONICAL_SURFACE ( 'NONE', #113, 0.7999999999999963807, 1.221730476396026610 ) ;
#118 = APPROVAL_STATUS ( 'not_yet_approved' ) ;
#119 = SHAPE_DEFINITION_REPRESENTATION ( #202, #169 ) ;
#120 = CC_DESIGN_DATE_AND_TIME_ASSIGNMENT ( #145, #175, ( #180 ) ) ;
#121 = PLANE ( 'NONE',  #8 ) ;
#122 = EDGE_LOOP ( 'NONE', ( #184 ) ) ;
#123 = ADVANCED_FACE ( 'NONE', ( #11, #187 ), #61, .T. ) ;
#124 = FACE_OUTER_BOUND ( 'NONE', #103, .T. ) ;
#125 = AXIS2_PLACEMENT_3D ( 'NONE', #7, #10, #73 ) ;
#126 = DIRECTION ( 'NONE',  ( 0.0000000000000000000, 1.000000000000000000, 0.0000000000000000000 ) ) ;
#127 = PLANE ( 'NONE',  #179 ) ;
#128 = UNCERTAINTY_MEASURE_WITH_UNIT (LENGTH_MEASURE( 1.000000000000000082E-05 ), #42, 'distance_accuracy_value', 'NONE');
#129 = CARTESIAN_POINT ( 'NONE',  ( 4.189777606611760026E-14, -1.469576158976823947E-15, 12.00000000000000000 ) ) ;
#130 = DIRECTION ( 'NONE',  ( -3.491481338843133355E-15, 1.224646799147353207E-16, -1.000000000000000000 ) ) ;
#131 = CC_DESIGN_PERSON_AND_ORGANIZATION_ASSIGNMENT ( #63, #6, ( #53 ) ) ;
#132 = APPROVAL_STATUS ( 'not_yet_approved' ) ;
#133 = LOCAL_TIME ( 15, 34, 27.00000000000000000, #190 ) ;
#134 = PERSON ( 'UNSPECIFIED', 'UNSPECIFIED', 'UNSPECIFIED', ('UNSPECIFIED'), ('UNSPECIFIED'), ('UNSPECIFIED') ) ;
#135 = LOCAL_TIME ( 15, 34, 27.00000000000000000, #155 ) ;
#136 = CC_DESIGN_DATE_AND_TIME_ASSIGNMENT ( #116, #44, ( #41 ) ) ;
#137 = EDGE_LOOP ( 'NONE', ( #33 ) ) ;
#138 = CARTESIAN_POINT ( 'NONE',  ( 4.189777606611760026E-14, 0.7999999999999963807, 12.00000000000000000 ) ) ;
#139 = CIRCLE ( 'NONE', #13, 0.8000000000000010436 ) ;
#140 = CARTESIAN_POINT ( 'NONE',  ( 0.0000000000000000000, 0.0000000000000000000, 0.0000000000000000000 ) ) ;
#141 = DIRECTION ( 'NONE',  ( -4.275831445896958607E-31, -1.000000000000000000, -1.224646799147353207E-16 ) ) ;
#142 = CLOSED_SHELL ( 'NONE', ( #144, #123, #17, #29 ) ) ;
#143 = DIRECTION ( 'NONE',  ( 0.0000000000000000000, 1.000000000000000000, 0.0000000000000000000 ) ) ;
#144 = ADVANCED_FACE ( 'NONE', ( #188 ), #127, .F. ) ;
#145 = DATE_AND_TIME ( #115, #45 ) ;
#146 = APPROVAL_DATE_TIME ( #46, #108 ) ;
#147 = APPROVAL_ROLE ( '' ) ;
#148 = DIRECTION ( 'NONE',  ( 4.275831445896958607E-31, 1.000000000000000000, 1.224646799147353207E-16 ) ) ;
#149 =( GEOMETRIC_REPRESENTATION_CONTEXT ( 3 ) GLOBAL_UNCERTAINTY_ASSIGNED_CONTEXT ( ( #128 ) ) GLOBAL_UNIT_ASSIGNED_CONTEXT ( ( #42, #3, #201 ) ) REPRESENTATION_CONTEXT ( 'NONE', 'WORKASPACE' ) );
#150 = EDGE_LOOP ( 'NONE', ( #55 ) ) ;
#151 = DIRECTION ( 'NONE',  ( 3.491481338843133355E-15, -1.224646799147353207E-16, 1.000000000000000000 ) ) ;
#152 = EDGE_CURVE ( 'NONE', #79, #79, #139, .T. ) ;
#153 = DIRECTION ( 'NONE',  ( -3.491481338843133355E-15, 1.224646799147353207E-16, -1.000000000000000000 ) ) ;
#154 = CIRCLE ( 'NONE', #191, 0.5000000000000009992 ) ;
#155 = COORDINATED_UNIVERSAL_TIME_OFFSET ( 1, 0, .AHEAD. ) ;
#156 = APPROVAL_DATE_TIME ( #4, #101 ) ;
#157 = APPROVAL_ROLE ( '' ) ;
#158 = AXIS2_PLACEMENT_3D ( 'NONE', #23, #87, #106 ) ;
#159 = CALENDAR_DATE ( 2021, 15, 10 ) ;
#160 = APPROVAL ( #118, 'UNSPECIFIED' ) ;
#161 = ORIENTED_EDGE ( 'NONE', *, *, #84, .T. ) ;
#162 = FACE_OUTER_BOUND ( 'NONE', #150, .T. ) ;
#163 = APPROVAL_PERSON_ORGANIZATION ( #97, #101, #147 ) ;
#164 = CARTESIAN_POINT ( 'NONE',  ( 1.326762908760390423E-13, 3.749399456654581755E-33, 38.00000000000000000 ) ) ;
#165 = ORIENTED_EDGE ( 'NONE', *, *, #43, .F. ) ;
#166 = CIRCLE ( 'NONE', #200, 0.7999999999999978240 ) ;
#167 = VERTEX_POINT ( 'NONE', #138 ) ;
#168 = APPLICATION_PROTOCOL_DEFINITION ( 'international standard', 'config_control_design', 1994, #1 ) ;
#169 = ADVANCED_BREP_SHAPE_REPRESENTATION ( '31577', ( #93, #92, #174 ), #149 ) ;
#170 = AXIS2_PLACEMENT_3D ( 'NONE', #129, #189, #58 ) ;
#171 = CARTESIAN_POINT ( 'NONE',  ( 1.016636224667856208E-15, 0.7999999999999963807, 0.2911761874129644712 ) ) ;
#172 = ADVANCED_FACE ( 'NONE', ( #40 ), #117, .T. ) ;
#173 = CARTESIAN_POINT ( 'NONE',  ( 1.326762908760390423E-13, 0.4999999999999963363, 38.00000000000000000 ) ) ;
#174 = AXIS2_PLACEMENT_3D ( 'NONE', #114, #199, #111 ) ;
#175 = DATE_TIME_ROLE ( 'creation_date' ) ;
#176 = PERSON_AND_ORGANIZATION_ROLE ( 'classification_officer' ) ;
#177 = PERSON_AND_ORGANIZATION ( #134, #71 ) ;
#178 = CALENDAR_DATE ( 2021, 15, 10 ) ;
#179 = AXIS2_PLACEMENT_3D ( 'NONE', #186, #151, #141 ) ;
#180 = PRODUCT_DEFINITION ( 'UNKNOWN', '', #53, #104 ) ;
#181 = EDGE_LOOP ( 'NONE', ( #196 ) ) ;
#182 = DIRECTION ( 'NONE',  ( -4.275831445896958607E-31, -1.000000000000000000, -1.224646799147353207E-16 ) ) ;
#183 = CC_DESIGN_SECURITY_CLASSIFICATION ( #41, ( #53 ) ) ;
#184 = ORIENTED_EDGE ( 'NONE', *, *, #91, .T. ) ;
#185 = AXIS2_PLACEMENT_3D ( 'NONE', #59, #130, #28 ) ;
#186 = CARTESIAN_POINT ( 'NONE',  ( 4.189777606611760026E-14, 5.999039130647391430E-33, 12.00000000000000000 ) ) ;
#187 = FACE_OUTER_BOUND ( 'NONE', #137, .T. ) ;
#188 = FACE_OUTER_BOUND ( 'NONE', #122, .T. ) ;
#189 = DIRECTION ( 'NONE',  ( -3.491481338843133355E-15, 1.224646799147353207E-16, -1.000000000000000000 ) ) ;
#190 = COORDINATED_UNIVERSAL_TIME_OFFSET ( 1, 0, .AHEAD. ) ;
#191 = AXIS2_PLACEMENT_3D ( 'NONE', #88, #90, #194 ) ;
#192 = DATE_AND_TIME ( #31, #34 ) ;
#193 = APPROVAL_PERSON_ORGANIZATION ( #5, #108, #157 ) ;
#194 = DIRECTION ( 'NONE',  ( 0.0000000000000000000, 1.000000000000000000, 0.0000000000000000000 ) ) ;
#195 = ORIENTED_EDGE ( 'NONE', *, *, #43, .T. ) ;
#196 = ORIENTED_EDGE ( 'NONE', *, *, #52, .T. ) ;
#197 = ORIENTED_EDGE ( 'NONE', *, *, #84, .F. ) ;
#198 = CC_DESIGN_PERSON_AND_ORGANIZATION_ASSIGNMENT ( #2, #83, ( #69 ) ) ;
#199 = DIRECTION ( 'NONE',  ( 0.0000000000000000000, 0.0000000000000000000, 1.000000000000000000 ) ) ;
#200 = AXIS2_PLACEMENT_3D ( 'NONE', #77, #110, #143 ) ;
#201 =( NAMED_UNIT ( * ) SI_UNIT ( $, .STERADIAN. ) SOLID_ANGLE_UNIT ( ) );
#202 = PRODUCT_DEFINITION_SHAPE ( 'NONE', 'NONE',  #180 ) ;
#203 = CYLINDRICAL_SURFACE ( 'NONE', #105, 0.7999999999999971578 ) ;
ENDSEC;
END-ISO-10303-21;
