ISO-10303-21;
HEADER;
FILE_DESCRIPTION (( 'STEP AP203' ),
    '1' );
FILE_NAME ('31576.step',
    '2021-10-15T13:34:26',
    ( '' ),
    ( '' ),
    'SwSTEP 2.0',
    'SolidWorks 2019',
    '' );
FILE_SCHEMA (( 'CONFIG_CONTROL_DESIGN' ));
ENDSEC;

DATA;
#1 = DIRECTION ( 'NONE',  ( -3.491481338843133355E-15, 1.224646799147353207E-16, -1.000000000000000000 ) ) ;
#2 = CARTESIAN_POINT ( 'NONE',  ( 1.047444401652940007E-13, 0.4999999999999963363, 30.00000000000000000 ) ) ;
#3 = PRODUCT_RELATED_PRODUCT_CATEGORY ( 'detail', '', ( #33 ) ) ;
#4 = AXIS2_PLACEMENT_3D ( 'NONE', #164, #145, #25 ) ;
#5 = SECURITY_CLASSIFICATION_LEVEL ( 'unclassified' ) ;
#6 = EDGE_LOOP ( 'NONE', ( #178 ) ) ;
#7 = DATE_AND_TIME ( #83, #64 ) ;
#8 = APPLICATION_PROTOCOL_DEFINITION ( 'international standard', 'config_control_design', 1994, #86 ) ;
#9 = ORIENTED_EDGE ( 'NONE', *, *, #200, .F. ) ;
#10 = AXIS2_PLACEMENT_3D ( 'NONE', #123, #189, #50 ) ;
#11 = CALENDAR_DATE ( 2021, 15, 10 ) ;
#12 = DIRECTION ( 'NONE',  ( 3.491481338843133355E-15, -1.224646799147353207E-16, 1.000000000000000000 ) ) ;
#13 = APPROVAL ( #113, 'UNSPECIFIED' ) ;
#14 = PERSON_AND_ORGANIZATION_ROLE ( 'classification_officer' ) ;
#15 = DIRECTION ( 'NONE',  ( -3.491481338843133355E-15, 1.224646799147353207E-16, -1.000000000000000000 ) ) ;
#16 = CARTESIAN_POINT ( 'NONE',  ( 1.047444401652940007E-13, 3.749399456654588597E-33, 30.00000000000000000 ) ) ;
#17 = MANIFOLD_SOLID_BREP ( 'Corps-Déplacer/Copier1[1]', #128 ) ;
#18 = APPROVAL ( #159, 'UNSPECIFIED' ) ;
#19 = AXIS2_PLACEMENT_3D ( 'NONE', #16, #29, #155 ) ;
#20 = AXIS2_PLACEMENT_3D ( 'NONE', #152, #15, #76 ) ;
#21 = DATE_AND_TIME ( #199, #114 ) ;
#22 = CIRCLE ( 'NONE', #141, 0.6999999999999975131 ) ;
#23 = COORDINATED_UNIVERSAL_TIME_OFFSET ( 1, 0, .AHEAD. ) ;
#24 = FACE_OUTER_BOUND ( 'NONE', #169, .T. ) ;
#25 = DIRECTION ( 'NONE',  ( 1.000000000000000000, 0.0000000000000000000, 0.0000000000000000000 ) ) ;
#26 = EDGE_CURVE ( 'NONE', #157, #157, #45, .T. ) ;
#27 = CONICAL_SURFACE ( 'NONE', #144, 0.5000000000000000000, 0.7853981633974512766 ) ;
#28 = PERSON_AND_ORGANIZATION ( #78, #87 ) ;
#29 = DIRECTION ( 'NONE',  ( -3.491481338843133355E-15, 1.224646799147353207E-16, -1.000000000000000000 ) ) ;
#30 = DIRECTION ( 'NONE',  ( 4.275831445896957731E-31, 1.000000000000000000, 1.224646799147353207E-16 ) ) ;
#31 = FACE_OUTER_BOUND ( 'NONE', #163, .T. ) ;
#32 = APPROVAL_PERSON_ORGANIZATION ( #46, #18, #161 ) ;
#33 = PRODUCT ( '31576', '31576', '', ( #59 ) ) ;
#34 = ADVANCED_FACE ( 'NONE', ( #24 ), #96, .T. ) ;
#35 = VERTEX_POINT ( 'NONE', #175 ) ;
#36 = CLOSED_SHELL ( 'NONE', ( #177, #77, #34 ) ) ;
#37 = PRODUCT_DEFINITION_FORMATION_WITH_SPECIFIED_SOURCE ( 'ANY', '', #33, .NOT_KNOWN. ) ;
#38 = EDGE_LOOP ( 'NONE', ( #136 ) ) ;
#39 = PERSON_AND_ORGANIZATION ( #78, #87 ) ;
#40 = LOCAL_TIME ( 15, 34, 26.00000000000000000, #116 ) ;
#41 = CARTESIAN_POINT ( 'NONE',  ( 3.491481338843133986E-14, 2.478176394252590489E-14, 10.00000000000000178 ) ) ;
#42 = COORDINATED_UNIVERSAL_TIME_OFFSET ( 1, 0, .AHEAD. ) ;
#43 = CC_DESIGN_DATE_AND_TIME_ASSIGNMENT ( #195, #58, ( #147 ) ) ;
#44 = PERSON_AND_ORGANIZATION ( #78, #87 ) ;
#45 = CIRCLE ( 'NONE', #191, 0.5000000000000000000 ) ;
#46 = PERSON_AND_ORGANIZATION ( #78, #87 ) ;
#47 = DIRECTION ( 'NONE',  ( 0.0000000000000000000, 1.000000000000000000, 0.0000000000000000000 ) ) ;
#48 = FACE_OUTER_BOUND ( 'NONE', #6, .T. ) ;
#49 = DIRECTION ( 'NONE',  ( -4.275831445896958607E-31, -1.000000000000000000, -1.224646799147353207E-16 ) ) ;
#50 = DIRECTION ( 'NONE',  ( 0.0000000000000000000, 1.000000000000000000, 0.0000000000000000000 ) ) ;
#51 = ADVANCED_FACE ( 'NONE', ( #118 ), #183, .F. ) ;
#52 = VERTEX_POINT ( 'NONE', #80 ) ;
#53 = CC_DESIGN_APPROVAL ( #109, ( #147 ) ) ;
#54 = DIRECTION ( 'NONE',  ( -3.491481338843133355E-15, 1.224646799147353207E-16, -1.000000000000000000 ) ) ;
#55 = COORDINATED_UNIVERSAL_TIME_OFFSET ( 1, 0, .AHEAD. ) ;
#56 = AXIS2_PLACEMENT_3D ( 'NONE', #142, #99, #49 ) ;
#57 = CC_DESIGN_PERSON_AND_ORGANIZATION_ASSIGNMENT ( #150, #14, ( #138 ) ) ;
#58 = DATE_TIME_ROLE ( 'creation_date' ) ;
#59 = MECHANICAL_CONTEXT ( 'NONE', #86, 'mechanical' ) ;
#60 = DIRECTION ( 'NONE',  ( -4.275831445896958607E-31, -1.000000000000000000, -1.224646799147353207E-16 ) ) ;
#61 = DIRECTION ( 'NONE',  ( 4.275831445896958607E-31, 1.000000000000000000, 1.224646799147353207E-16 ) ) ;
#62 = DIRECTION ( 'NONE',  ( -3.491481338843133355E-15, 1.224646799147353207E-16, -1.000000000000000000 ) ) ;
#63 = CARTESIAN_POINT ( 'NONE',  ( 8.895566965843732946E-16, -3.120144876653143532E-17, 0.2547791639863435931 ) ) ;
#64 = LOCAL_TIME ( 15, 34, 26.00000000000000000, #23 ) ;
#65 = VERTEX_POINT ( 'NONE', #126 ) ;
#66 = CONICAL_SURFACE ( 'NONE', #124, 0.6999999999999962919, 1.221730476396026610 ) ;
#67 = CC_DESIGN_PERSON_AND_ORGANIZATION_ASSIGNMENT ( #28, #88, ( #37 ) ) ;
#68 = AXIS2_PLACEMENT_3D ( 'NONE', #41, #12, #60 ) ;
#69 = PERSON_AND_ORGANIZATION ( #78, #87 ) ;
#70 = ORIENTED_EDGE ( 'NONE', *, *, #188, .F. ) ;
#71 = EDGE_LOOP ( 'NONE', ( #85 ) ) ;
#72 =( LENGTH_UNIT ( ) NAMED_UNIT ( * ) SI_UNIT ( .MILLI., .METRE. ) );
#73 = COORDINATED_UNIVERSAL_TIME_OFFSET ( 1, 0, .AHEAD. ) ;
#74 = FACE_OUTER_BOUND ( 'NONE', #180, .T. ) ;
#75 = FACE_OUTER_BOUND ( 'NONE', #165, .T. ) ;
#76 = DIRECTION ( 'NONE',  ( 5.502656983963560286E-31, 1.000000000000000000, 1.548860246407871718E-16 ) ) ;
#77 = ADVANCED_FACE ( 'NONE', ( #48, #122 ), #105, .T. ) ;
#78 = PERSON ( 'UNSPECIFIED', 'UNSPECIFIED', 'UNSPECIFIED', ('UNSPECIFIED'), ('UNSPECIFIED'), ('UNSPECIFIED') ) ;
#79 = FACE_BOUND ( 'NONE', #134, .T. ) ;
#80 = CARTESIAN_POINT ( 'NONE',  ( 1.040461438975253740E-13, 0.6999999999999962919, 29.80000000000000071 ) ) ;
#81 = ORIENTED_EDGE ( 'NONE', *, *, #156, .T. ) ;
#82 =( NAMED_UNIT ( * ) SI_UNIT ( $, .STERADIAN. ) SOLID_ANGLE_UNIT ( ) );
#83 = CALENDAR_DATE ( 2021, 15, 10 ) ;
#84 = PERSON_AND_ORGANIZATION ( #78, #87 ) ;
#85 = ORIENTED_EDGE ( 'NONE', *, *, #193, .F. ) ;
#86 = APPLICATION_CONTEXT ( 'configuration controlled 3d designs of mechanical parts and assemblies' ) ;
#87 = ORGANIZATION ( 'UNSPECIFIED', 'UNSPECIFIED', '' ) ;
#88 = PERSON_AND_ORGANIZATION_ROLE ( 'design_supplier' ) ;
#89 = CC_DESIGN_DATE_AND_TIME_ASSIGNMENT ( #21, #184, ( #138 ) ) ;
#90 = CC_DESIGN_APPROVAL ( #13, ( #37 ) ) ;
#91 = CYLINDRICAL_SURFACE ( 'NONE', #98, 0.6999999999999988454 ) ;
#92 = DIRECTION ( 'NONE',  ( 0.0000000000000000000, 1.000000000000000000, 0.0000000000000000000 ) ) ;
#93 = CARTESIAN_POINT ( 'NONE',  ( 3.491481338843133986E-14, 0.6999999999999962919, 10.00000000000000178 ) ) ;
#94 = AXIS2_PLACEMENT_3D ( 'NONE', #154, #62, #106 ) ;
#95 = APPLICATION_CONTEXT ( 'configuration controlled 3d designs of mechanical parts and assemblies' ) ;
#96 = PLANE ( 'NONE',  #68 ) ;
#97 = DATE_AND_TIME ( #11, #107 ) ;
#98 = AXIS2_PLACEMENT_3D ( 'NONE', #186, #170, #30 ) ;
#99 = DIRECTION ( 'NONE',  ( 3.491481338843133355E-15, -1.224646799147353207E-16, 1.000000000000000000 ) ) ;
#100 = ORIENTED_EDGE ( 'NONE', *, *, #200, .T. ) ;
#101 = APPROVAL_ROLE ( '' ) ;
#102 = APPROVAL_STATUS ( 'not_yet_approved' ) ;
#103 = ADVANCED_FACE ( 'NONE', ( #121, #79 ), #27, .T. ) ;
#104 = PLANE ( 'NONE',  #19 ) ;
#105 = CYLINDRICAL_SURFACE ( 'NONE', #185, 0.6999999999999968470 ) ;
#106 = DIRECTION ( 'NONE',  ( 0.0000000000000000000, 1.000000000000000000, 0.0000000000000000000 ) ) ;
#107 = LOCAL_TIME ( 15, 34, 26.00000000000000000, #42 ) ;
#108 = CARTESIAN_POINT ( 'NONE',  ( 3.491481338843133986E-14, -1.224646799147353454E-15, 10.00000000000000178 ) ) ;
#109 = APPROVAL ( #102, 'UNSPECIFIED' ) ;
#110 =( GEOMETRIC_REPRESENTATION_CONTEXT ( 3 ) GLOBAL_UNCERTAINTY_ASSIGNED_CONTEXT ( ( #192 ) ) GLOBAL_UNIT_ASSIGNED_CONTEXT ( ( #72, #181, #82 ) ) REPRESENTATION_CONTEXT ( 'NONE', 'WORKASPACE' ) );
#111 = PERSON_AND_ORGANIZATION_ROLE ( 'creator' ) ;
#112 = ORIENTED_EDGE ( 'NONE', *, *, #26, .F. ) ;
#113 = APPROVAL_STATUS ( 'not_yet_approved' ) ;
#114 = LOCAL_TIME ( 15, 34, 26.00000000000000000, #73 ) ;
#115 = APPLICATION_PROTOCOL_DEFINITION ( 'international standard', 'config_control_design', 1994, #95 ) ;
#116 = COORDINATED_UNIVERSAL_TIME_OFFSET ( 1, 0, .AHEAD. ) ;
#117 = CC_DESIGN_PERSON_AND_ORGANIZATION_ASSIGNMENT ( #69, #111, ( #147 ) ) ;
#118 = FACE_OUTER_BOUND ( 'NONE', #38, .T. ) ;
#119 = PERSON_AND_ORGANIZATION ( #78, #87 ) ;
#120 = LOCAL_TIME ( 15, 34, 26.00000000000000000, #55 ) ;
#121 = FACE_OUTER_BOUND ( 'NONE', #71, .T. ) ;
#122 = FACE_OUTER_BOUND ( 'NONE', #129, .T. ) ;
#123 = CARTESIAN_POINT ( 'NONE',  ( 1.040461438975253740E-13, -3.649447461459112464E-15, 29.80000000000000071 ) ) ;
#124 = AXIS2_PLACEMENT_3D ( 'NONE', #63, #187, #137 ) ;
#125 = ADVANCED_FACE ( 'NONE', ( #172 ), #104, .F. ) ;
#126 = CARTESIAN_POINT ( 'NONE',  ( 8.895566965843736890E-16, 0.6999999999999962919, 0.2547791639863437041 ) ) ;
#127 = APPROVAL_PERSON_ORGANIZATION ( #39, #109, #101 ) ;
#128 = CLOSED_SHELL ( 'NONE', ( #51, #135, #103, #125 ) ) ;
#129 = EDGE_LOOP ( 'NONE', ( #100 ) ) ;
#130 = ORIENTED_EDGE ( 'NONE', *, *, #26, .T. ) ;
#131 = APPROVAL_DATE_TIME ( #7, #18 ) ;
#132 = DIRECTION ( 'NONE',  ( 0.0000000000000000000, 1.000000000000000000, 0.0000000000000000000 ) ) ;
#133 = DATE_AND_TIME ( #143, #120 ) ;
#134 = EDGE_LOOP ( 'NONE', ( #130 ) ) ;
#135 = ADVANCED_FACE ( 'NONE', ( #74, #31 ), #91, .T. ) ;
#136 = ORIENTED_EDGE ( 'NONE', *, *, #188, .T. ) ;
#137 = DIRECTION ( 'NONE',  ( -5.502656983963560286E-31, -1.000000000000000000, -1.548860246407871718E-16 ) ) ;
#138 = SECURITY_CLASSIFICATION ( '', '', #5 ) ;
#139 = CC_DESIGN_PERSON_AND_ORGANIZATION_ASSIGNMENT ( #44, #168, ( #37 ) ) ;
#140 = DESIGN_CONTEXT ( 'detailed design', #95, 'design' ) ;
#141 = AXIS2_PLACEMENT_3D ( 'NONE', #108, #174, #92 ) ;
#142 = CARTESIAN_POINT ( 'NONE',  ( 3.491481338843133986E-14, 2.478176394252590489E-14, 10.00000000000000178 ) ) ;
#143 = CALENDAR_DATE ( 2021, 15, 10 ) ;
#144 = AXIS2_PLACEMENT_3D ( 'NONE', #151, #1, #47 ) ;
#145 = DIRECTION ( 'NONE',  ( 0.0000000000000000000, 0.0000000000000000000, 1.000000000000000000 ) ) ;
#146 = PERSON_AND_ORGANIZATION_ROLE ( 'design_owner' ) ;
#147 = PRODUCT_DEFINITION ( 'UNKNOWN', '', #37, #140 ) ;
#148 = MANIFOLD_SOLID_BREP ( 'Corps-Déplacer/Copier1[2]', #36 ) ;
#149 = CALENDAR_DATE ( 2021, 15, 10 ) ;
#150 = PERSON_AND_ORGANIZATION ( #78, #87 ) ;
#151 = CARTESIAN_POINT ( 'NONE',  ( 1.047444401652940007E-13, -3.673940397442059178E-15, 30.00000000000000000 ) ) ;
#152 = CARTESIAN_POINT ( 'NONE',  ( 8.895566965843732946E-16, -3.120144876653143532E-17, 0.2547791639863435931 ) ) ;
#153 = APPROVAL_PERSON_ORGANIZATION ( #119, #13, #179 ) ;
#154 = CARTESIAN_POINT ( 'NONE',  ( 3.491481338843133986E-14, -1.224646799147353454E-15, 10.00000000000000178 ) ) ;
#155 = DIRECTION ( 'NONE',  ( 4.275831445896958607E-31, 1.000000000000000000, 1.224646799147353207E-16 ) ) ;
#156 = EDGE_CURVE ( 'NONE', #65, #65, #202, .T. ) ;
#157 = VERTEX_POINT ( 'NONE', #2 ) ;
#158 = CC_DESIGN_PERSON_AND_ORGANIZATION_ASSIGNMENT ( #84, #146, ( #33 ) ) ;
#159 = APPROVAL_STATUS ( 'not_yet_approved' ) ;
#160 = ORIENTED_EDGE ( 'NONE', *, *, #193, .T. ) ;
#161 = APPROVAL_ROLE ( '' ) ;
#162 = CIRCLE ( 'NONE', #94, 0.6999999999999975131 ) ;
#163 = EDGE_LOOP ( 'NONE', ( #160 ) ) ;
#164 = CARTESIAN_POINT ( 'NONE',  ( 0.0000000000000000000, 0.0000000000000000000, 0.0000000000000000000 ) ) ;
#165 = EDGE_LOOP ( 'NONE', ( #81 ) ) ;
#166 = ADVANCED_BREP_SHAPE_REPRESENTATION ( '31576', ( #17, #148, #4 ), #110 ) ;
#167 = CARTESIAN_POINT ( 'NONE',  ( 1.047444401652940007E-13, -3.673940397442059178E-15, 30.00000000000000000 ) ) ;
#168 = PERSON_AND_ORGANIZATION_ROLE ( 'creator' ) ;
#169 = EDGE_LOOP ( 'NONE', ( #9 ) ) ;
#170 = DIRECTION ( 'NONE',  ( -3.491481338843133355E-15, 1.224646799147353207E-16, -1.000000000000000000 ) ) ;
#171 = PRODUCT_DEFINITION_SHAPE ( 'NONE', 'NONE',  #147 ) ;
#172 = FACE_OUTER_BOUND ( 'NONE', #198, .T. ) ;
#173 = CC_DESIGN_APPROVAL ( #18, ( #138 ) ) ;
#174 = DIRECTION ( 'NONE',  ( -3.491481338843133355E-15, 1.224646799147353207E-16, -1.000000000000000000 ) ) ;
#175 = CARTESIAN_POINT ( 'NONE',  ( 3.491481338843133986E-14, 0.6999999999999962919, 10.00000000000000178 ) ) ;
#176 = CIRCLE ( 'NONE', #10, 0.6999999999999999556 ) ;
#177 = ADVANCED_FACE ( 'NONE', ( #75 ), #66, .T. ) ;
#178 = ORIENTED_EDGE ( 'NONE', *, *, #156, .F. ) ;
#179 = APPROVAL_ROLE ( '' ) ;
#180 = EDGE_LOOP ( 'NONE', ( #70 ) ) ;
#181 =( NAMED_UNIT ( * ) PLANE_ANGLE_UNIT ( ) SI_UNIT ( $, .RADIAN. ) );
#182 = APPROVAL_DATE_TIME ( #97, #13 ) ;
#183 = PLANE ( 'NONE',  #56 ) ;
#184 = DATE_TIME_ROLE ( 'classification_date' ) ;
#185 = AXIS2_PLACEMENT_3D ( 'NONE', #203, #201, #61 ) ;
#186 = CARTESIAN_POINT ( 'NONE',  ( 0.0000000000000000000, 0.0000000000000000000, 0.0000000000000000000 ) ) ;
#187 = DIRECTION ( 'NONE',  ( 3.491481338843133355E-15, -1.224646799147353207E-16, 1.000000000000000000 ) ) ;
#188 = EDGE_CURVE ( 'NONE', #190, #190, #162, .T. ) ;
#189 = DIRECTION ( 'NONE',  ( -3.491481338843133355E-15, 1.224646799147353207E-16, -1.000000000000000000 ) ) ;
#190 = VERTEX_POINT ( 'NONE', #93 ) ;
#191 = AXIS2_PLACEMENT_3D ( 'NONE', #167, #54, #132 ) ;
#192 = UNCERTAINTY_MEASURE_WITH_UNIT (LENGTH_MEASURE( 1.000000000000000082E-05 ), #72, 'distance_accuracy_value', 'NONE');
#193 = EDGE_CURVE ( 'NONE', #52, #52, #176, .T. ) ;
#194 = CC_DESIGN_SECURITY_CLASSIFICATION ( #138, ( #37 ) ) ;
#195 = DATE_AND_TIME ( #149, #40 ) ;
#196 = SHAPE_DEFINITION_REPRESENTATION ( #171, #166 ) ;
#197 = APPROVAL_DATE_TIME ( #133, #109 ) ;
#198 = EDGE_LOOP ( 'NONE', ( #112 ) ) ;
#199 = CALENDAR_DATE ( 2021, 15, 10 ) ;
#200 = EDGE_CURVE ( 'NONE', #35, #35, #22, .T. ) ;
#201 = DIRECTION ( 'NONE',  ( -3.491481338843133355E-15, 1.224646799147353207E-16, -1.000000000000000000 ) ) ;
#202 = CIRCLE ( 'NONE', #20, 0.6999999999999962919 ) ;
#203 = CARTESIAN_POINT ( 'NONE',  ( 0.0000000000000000000, 0.0000000000000000000, 0.0000000000000000000 ) ) ;
ENDSEC;
END-ISO-10303-21;
