ISO-10303-21;
HEADER;
FILE_DESCRIPTION (( 'STEP AP203' ),
    '1' );
FILE_NAME ('31575.step',
    '2021-10-15T13:34:25',
    ( '' ),
    ( '' ),
    'SwSTEP 2.0',
    'SolidWorks 2019',
    '' );
FILE_SCHEMA (( 'CONFIG_CONTROL_DESIGN' ));
ENDSEC;

DATA;
#1 = ORIENTED_EDGE ( 'NONE', *, *, #151, .F. ) ;
#2 = ORIENTED_EDGE ( 'NONE', *, *, #102, .T. ) ;
#3 = CARTESIAN_POINT ( 'NONE',  ( 0.0000000000000000000, 0.0000000000000000000, 0.0000000000000000000 ) ) ;
#4 = DIRECTION ( 'NONE',  ( -3.491481338843133355E-15, 1.224646799147353207E-16, -1.000000000000000000 ) ) ;
#5 = CARTESIAN_POINT ( 'NONE',  ( 1.040461438975253740E-13, 0.6499999999999962474, 29.80000000000000071 ) ) ;
#6 = EDGE_CURVE ( 'NONE', #36, #36, #123, .T. ) ;
#7 = DIRECTION ( 'NONE',  ( 3.491481338843133355E-15, -1.224646799147353207E-16, 1.000000000000000000 ) ) ;
#8 = CARTESIAN_POINT ( 'NONE',  ( 1.047444401652940007E-13, 0.4499999999999962919, 30.00000000000000000 ) ) ;
#9 = PERSON_AND_ORGANIZATION_ROLE ( 'design_supplier' ) ;
#10 = APPROVAL_DATE_TIME ( #105, #160 ) ;
#11 = SECURITY_CLASSIFICATION_LEVEL ( 'unclassified' ) ;
#12 = LOCAL_TIME ( 15, 34, 25.00000000000000000, #138 ) ;
#13 = PERSON ( 'UNSPECIFIED', 'UNSPECIFIED', 'UNSPECIFIED', ('UNSPECIFIED'), ('UNSPECIFIED'), ('UNSPECIFIED') ) ;
#14 = COORDINATED_UNIVERSAL_TIME_OFFSET ( 1, 0, .AHEAD. ) ;
#15 = PRODUCT_DEFINITION ( 'UNKNOWN', '', #101, #129 ) ;
#16 = CARTESIAN_POINT ( 'NONE',  ( 3.491481338843133986E-14, -1.224646799147353454E-15, 10.00000000000000178 ) ) ;
#17 = CC_DESIGN_APPROVAL ( #160, ( #101 ) ) ;
#18 = CC_DESIGN_APPROVAL ( #39, ( #15 ) ) ;
#19 = DIRECTION ( 'NONE',  ( 3.491481338843133355E-15, -1.224646799147353207E-16, 1.000000000000000000 ) ) ;
#20 = ADVANCED_FACE ( 'NONE', ( #77, #140 ), #174, .T. ) ;
#21 = DIRECTION ( 'NONE',  ( -4.275831445896958607E-31, -1.000000000000000000, -1.224646799147353207E-16 ) ) ;
#22 = CARTESIAN_POINT ( 'NONE',  ( 3.491481338843133986E-14, -1.224646799147353454E-15, 10.00000000000000178 ) ) ;
#23 = VERTEX_POINT ( 'NONE', #5 ) ;
#24 = DIRECTION ( 'NONE',  ( 0.0000000000000000000, 0.0000000000000000000, 1.000000000000000000 ) ) ;
#25 = CALENDAR_DATE ( 2021, 15, 10 ) ;
#26 = CC_DESIGN_DATE_AND_TIME_ASSIGNMENT ( #134, #75, ( #15 ) ) ;
#27 = APPROVAL_STATUS ( 'not_yet_approved' ) ;
#28 = CIRCLE ( 'NONE', #157, 0.4500000000000000111 ) ;
#29 = ADVANCED_FACE ( 'NONE', ( #95, #112 ), #87, .T. ) ;
#30 = CARTESIAN_POINT ( 'NONE',  ( 0.0000000000000000000, 0.0000000000000000000, 0.0000000000000000000 ) ) ;
#31 = AXIS2_PLACEMENT_3D ( 'NONE', #16, #188, #57 ) ;
#32 = VERTEX_POINT ( 'NONE', #34 ) ;
#33 = CARTESIAN_POINT ( 'NONE',  ( 8.260169325426320351E-16, -2.897277385463632135E-17, 0.2365806522730332928 ) ) ;
#34 = CARTESIAN_POINT ( 'NONE',  ( 8.260169325426323309E-16, 0.6499999999999962474, 0.2365806522730333761 ) ) ;
#35 = PLANE ( 'NONE',  #45 ) ;
#36 = VERTEX_POINT ( 'NONE', #168 ) ;
#37 = AXIS2_PLACEMENT_3D ( 'NONE', #48, #81, #147 ) ;
#38 = PERSON_AND_ORGANIZATION_ROLE ( 'creator' ) ;
#39 = APPROVAL ( #71, 'UNSPECIFIED' ) ;
#40 = APPROVAL_ROLE ( '' ) ;
#41 = CIRCLE ( 'NONE', #170, 0.6500000000000000222 ) ;
#42 = CC_DESIGN_PERSON_AND_ORGANIZATION_ASSIGNMENT ( #171, #9, ( #101 ) ) ;
#43 = ORIENTED_EDGE ( 'NONE', *, *, #194, .F. ) ;
#44 =( NAMED_UNIT ( * ) SI_UNIT ( $, .STERADIAN. ) SOLID_ANGLE_UNIT ( ) );
#45 = AXIS2_PLACEMENT_3D ( 'NONE', #196, #7, #180 ) ;
#46 =( LENGTH_UNIT ( ) NAMED_UNIT ( * ) SI_UNIT ( .MILLI., .METRE. ) );
#47 = VERTEX_POINT ( 'NONE', #177 ) ;
#48 = CARTESIAN_POINT ( 'NONE',  ( 1.047444401652940007E-13, -3.673940397442059178E-15, 30.00000000000000000 ) ) ;
#49 = CARTESIAN_POINT ( 'NONE',  ( 1.047444401652940007E-13, 3.374459510989123511E-33, 30.00000000000000000 ) ) ;
#50 = PERSON_AND_ORGANIZATION ( #13, #91 ) ;
#51 = APPLICATION_PROTOCOL_DEFINITION ( 'international standard', 'config_control_design', 1994, #113 ) ;
#52 = PERSON_AND_ORGANIZATION ( #13, #91 ) ;
#53 = PERSON_AND_ORGANIZATION ( #13, #91 ) ;
#54 = AXIS2_PLACEMENT_3D ( 'NONE', #65, #19, #21 ) ;
#55 = CC_DESIGN_SECURITY_CLASSIFICATION ( #125, ( #101 ) ) ;
#56 = DIRECTION ( 'NONE',  ( 4.275831445896958607E-31, 1.000000000000000000, 1.224646799147353207E-16 ) ) ;
#57 = DIRECTION ( 'NONE',  ( 0.0000000000000000000, 1.000000000000000000, 0.0000000000000000000 ) ) ;
#58 = CIRCLE ( 'NONE', #76, 0.6499999999999974687 ) ;
#59 = CC_DESIGN_PERSON_AND_ORGANIZATION_ASSIGNMENT ( #50, #38, ( #15 ) ) ;
#60 = ORIENTED_EDGE ( 'NONE', *, *, #6, .T. ) ;
#61 = EDGE_LOOP ( 'NONE', ( #161 ) ) ;
#62 = DIRECTION ( 'NONE',  ( 4.275831445896958607E-31, 1.000000000000000000, 1.224646799147353207E-16 ) ) ;
#63 = DIRECTION ( 'NONE',  ( -4.444453717816723386E-31, -1.000000000000000000, -1.251002506714050689E-16 ) ) ;
#64 = DIRECTION ( 'NONE',  ( -3.491481338843133355E-15, 1.224646799147353207E-16, -1.000000000000000000 ) ) ;
#65 = CARTESIAN_POINT ( 'NONE',  ( 3.491481338843133986E-14, 2.668805347656636736E-14, 10.00000000000000178 ) ) ;
#66 = FACE_OUTER_BOUND ( 'NONE', #79, .T. ) ;
#67 = PRODUCT_RELATED_PRODUCT_CATEGORY ( 'detail', '', ( #192 ) ) ;
#68 = APPROVAL_PERSON_ORGANIZATION ( #53, #143, #40 ) ;
#69 = PRODUCT_DEFINITION_SHAPE ( 'NONE', 'NONE',  #15 ) ;
#70 = COORDINATED_UNIVERSAL_TIME_OFFSET ( 1, 0, .AHEAD. ) ;
#71 = APPROVAL_STATUS ( 'not_yet_approved' ) ;
#72 = MECHANICAL_CONTEXT ( 'NONE', #155, 'mechanical' ) ;
#73 = LOCAL_TIME ( 15, 34, 25.00000000000000000, #14 ) ;
#74 = COORDINATED_UNIVERSAL_TIME_OFFSET ( 1, 0, .AHEAD. ) ;
#75 = DATE_TIME_ROLE ( 'creation_date' ) ;
#76 = AXIS2_PLACEMENT_3D ( 'NONE', #22, #189, #165 ) ;
#77 = FACE_OUTER_BOUND ( 'NONE', #163, .T. ) ;
#78 = EDGE_LOOP ( 'NONE', ( #110 ) ) ;
#79 = EDGE_LOOP ( 'NONE', ( #94 ) ) ;
#80 = MANIFOLD_SOLID_BREP ( 'Corps-Déplacer/Copier1[2]', #149 ) ;
#81 = DIRECTION ( 'NONE',  ( -3.491481338843133355E-15, 1.224646799147353207E-16, -1.000000000000000000 ) ) ;
#82 = CARTESIAN_POINT ( 'NONE',  ( 1.047444401652940007E-13, -3.673940397442059178E-15, 30.00000000000000000 ) ) ;
#83 = PLANE ( 'NONE',  #54 ) ;
#84 = CC_DESIGN_PERSON_AND_ORGANIZATION_ASSIGNMENT ( #52, #120, ( #101 ) ) ;
#85 = VERTEX_POINT ( 'NONE', #8 ) ;
#86 = APPROVAL_ROLE ( '' ) ;
#87 = CONICAL_SURFACE ( 'NONE', #37, 0.4500000000000000111, 0.7853981633974512766 ) ;
#88 = CALENDAR_DATE ( 2021, 15, 10 ) ;
#89 = CALENDAR_DATE ( 2021, 15, 10 ) ;
#90 = PERSON_AND_ORGANIZATION_ROLE ( 'design_owner' ) ;
#91 = ORGANIZATION ( 'UNSPECIFIED', 'UNSPECIFIED', '' ) ;
#92 = DIRECTION ( 'NONE',  ( 1.000000000000000000, 0.0000000000000000000, 0.0000000000000000000 ) ) ;
#93 = ADVANCED_FACE ( 'NONE', ( #103 ), #35, .F. ) ;
#94 = ORIENTED_EDGE ( 'NONE', *, *, #6, .F. ) ;
#95 = FACE_OUTER_BOUND ( 'NONE', #78, .T. ) ;
#96 = ADVANCED_BREP_SHAPE_REPRESENTATION ( '31575', ( #144, #80, #182 ), #172 ) ;
#97 = ORIENTED_EDGE ( 'NONE', *, *, #102, .F. ) ;
#98 = EDGE_LOOP ( 'NONE', ( #43 ) ) ;
#99 = CARTESIAN_POINT ( 'NONE',  ( 1.040461438975253740E-13, -3.649447461459112464E-15, 29.80000000000000071 ) ) ;
#100 = DIRECTION ( 'NONE',  ( 3.491481338843133355E-15, -1.224646799147353207E-16, 1.000000000000000000 ) ) ;
#101 = PRODUCT_DEFINITION_FORMATION_WITH_SPECIFIED_SOURCE ( 'ANY', '', #192, .NOT_KNOWN. ) ;
#102 = EDGE_CURVE ( 'NONE', #85, #85, #28, .T. ) ;
#103 = FACE_OUTER_BOUND ( 'NONE', #61, .T. ) ;
#104 = UNCERTAINTY_MEASURE_WITH_UNIT (LENGTH_MEASURE( 1.000000000000000082E-05 ), #46, 'distance_accuracy_value', 'NONE');
#105 = DATE_AND_TIME ( #89, #12 ) ;
#106 = APPROVAL_DATE_TIME ( #150, #143 ) ;
#107 = CIRCLE ( 'NONE', #111, 0.6499999999999962474 ) ;
#108 = ADVANCED_FACE ( 'NONE', ( #176, #116 ), #178, .T. ) ;
#109 = APPROVAL_STATUS ( 'not_yet_approved' ) ;
#110 = ORIENTED_EDGE ( 'NONE', *, *, #137, .F. ) ;
#111 = AXIS2_PLACEMENT_3D ( 'NONE', #191, #166, #146 ) ;
#112 = FACE_BOUND ( 'NONE', #141, .T. ) ;
#113 = APPLICATION_CONTEXT ( 'configuration controlled 3d designs of mechanical parts and assemblies' ) ;
#114 = DIRECTION ( 'NONE',  ( 0.0000000000000000000, 1.000000000000000000, 0.0000000000000000000 ) ) ;
#115 = CC_DESIGN_PERSON_AND_ORGANIZATION_ASSIGNMENT ( #197, #90, ( #192 ) ) ;
#116 = FACE_OUTER_BOUND ( 'NONE', #156, .T. ) ;
#117 = DIRECTION ( 'NONE',  ( 0.0000000000000000000, 1.000000000000000000, 0.0000000000000000000 ) ) ;
#118 = COORDINATED_UNIVERSAL_TIME_OFFSET ( 1, 0, .AHEAD. ) ;
#119 = DATE_AND_TIME ( #173, #162 ) ;
#120 = PERSON_AND_ORGANIZATION_ROLE ( 'creator' ) ;
#121 = ADVANCED_FACE ( 'NONE', ( #190 ), #193, .F. ) ;
#122 = DATE_AND_TIME ( #181, #202 ) ;
#123 = CIRCLE ( 'NONE', #31, 0.6499999999999974687 ) ;
#124 = EDGE_LOOP ( 'NONE', ( #97 ) ) ;
#125 = SECURITY_CLASSIFICATION ( '', '', #11 ) ;
#126 = ORIENTED_EDGE ( 'NONE', *, *, #137, .T. ) ;
#127 = ADVANCED_FACE ( 'NONE', ( #164 ), #175, .T. ) ;
#128 = CC_DESIGN_APPROVAL ( #143, ( #125 ) ) ;
#129 = DESIGN_CONTEXT ( 'detailed design', #113, 'design' ) ;
#130 = DIRECTION ( 'NONE',  ( 4.275831445896958607E-31, 1.000000000000000000, 1.224646799147353207E-16 ) ) ;
#131 =( NAMED_UNIT ( * ) PLANE_ANGLE_UNIT ( ) SI_UNIT ( $, .RADIAN. ) );
#132 = APPROVAL_PERSON_ORGANIZATION ( #198, #160, #86 ) ;
#133 = PERSON_AND_ORGANIZATION ( #13, #91 ) ;
#134 = DATE_AND_TIME ( #25, #73 ) ;
#135 = APPROVAL_PERSON_ORGANIZATION ( #152, #39, #136 ) ;
#136 = APPROVAL_ROLE ( '' ) ;
#137 = EDGE_CURVE ( 'NONE', #23, #23, #41, .T. ) ;
#138 = COORDINATED_UNIVERSAL_TIME_OFFSET ( 1, 0, .AHEAD. ) ;
#139 = CLOSED_SHELL ( 'NONE', ( #93, #20, #29, #121 ) ) ;
#140 = FACE_OUTER_BOUND ( 'NONE', #158, .T. ) ;
#141 = EDGE_LOOP ( 'NONE', ( #2 ) ) ;
#142 = AXIS2_PLACEMENT_3D ( 'NONE', #3, #145, #130 ) ;
#143 = APPROVAL ( #27, 'UNSPECIFIED' ) ;
#144 = MANIFOLD_SOLID_BREP ( 'Corps-Déplacer/Copier1[1]', #139 ) ;
#145 = DIRECTION ( 'NONE',  ( -3.491481338843133355E-15, 1.224646799147353207E-16, -1.000000000000000000 ) ) ;
#146 = DIRECTION ( 'NONE',  ( 4.444453717816723386E-31, 1.000000000000000000, 1.251002506714050689E-16 ) ) ;
#147 = DIRECTION ( 'NONE',  ( 0.0000000000000000000, 1.000000000000000000, 0.0000000000000000000 ) ) ;
#148 = APPROVAL_DATE_TIME ( #122, #39 ) ;
#149 = CLOSED_SHELL ( 'NONE', ( #127, #108, #187 ) ) ;
#150 = DATE_AND_TIME ( #88, #185 ) ;
#151 = EDGE_CURVE ( 'NONE', #47, #47, #58, .T. ) ;
#152 = PERSON_AND_ORGANIZATION ( #13, #91 ) ;
#153 = AXIS2_PLACEMENT_3D ( 'NONE', #30, #203, #56 ) ;
#154 = SHAPE_DEFINITION_REPRESENTATION ( #69, #96 ) ;
#155 = APPLICATION_CONTEXT ( 'configuration controlled 3d designs of mechanical parts and assemblies' ) ;
#156 = EDGE_LOOP ( 'NONE', ( #60 ) ) ;
#157 = AXIS2_PLACEMENT_3D ( 'NONE', #82, #64, #114 ) ;
#158 = EDGE_LOOP ( 'NONE', ( #126 ) ) ;
#159 = ORIENTED_EDGE ( 'NONE', *, *, #194, .T. ) ;
#160 = APPROVAL ( #109, 'UNSPECIFIED' ) ;
#161 = ORIENTED_EDGE ( 'NONE', *, *, #151, .T. ) ;
#162 = LOCAL_TIME ( 15, 34, 25.00000000000000000, #74 ) ;
#163 = EDGE_LOOP ( 'NONE', ( #1 ) ) ;
#164 = FACE_OUTER_BOUND ( 'NONE', #186, .T. ) ;
#165 = DIRECTION ( 'NONE',  ( 0.0000000000000000000, 1.000000000000000000, 0.0000000000000000000 ) ) ;
#166 = DIRECTION ( 'NONE',  ( -3.491481338843133355E-15, 1.224646799147353207E-16, -1.000000000000000000 ) ) ;
#167 = DIRECTION ( 'NONE',  ( -3.491481338843133355E-15, 1.224646799147353207E-16, -1.000000000000000000 ) ) ;
#168 = CARTESIAN_POINT ( 'NONE',  ( 3.491481338843133986E-14, 0.6499999999999962474, 10.00000000000000178 ) ) ;
#169 = PERSON_AND_ORGANIZATION_ROLE ( 'classification_officer' ) ;
#170 = AXIS2_PLACEMENT_3D ( 'NONE', #99, #167, #117 ) ;
#171 = PERSON_AND_ORGANIZATION ( #13, #91 ) ;
#172 =( GEOMETRIC_REPRESENTATION_CONTEXT ( 3 ) GLOBAL_UNCERTAINTY_ASSIGNED_CONTEXT ( ( #104 ) ) GLOBAL_UNIT_ASSIGNED_CONTEXT ( ( #46, #131, #44 ) ) REPRESENTATION_CONTEXT ( 'NONE', 'WORKASPACE' ) );
#173 = CALENDAR_DATE ( 2021, 15, 10 ) ;
#174 = CYLINDRICAL_SURFACE ( 'NONE', #153, 0.6499999999999986899 ) ;
#175 = CONICAL_SURFACE ( 'NONE', #199, 0.6499999999999962474, 1.221730476396026388 ) ;
#176 = FACE_OUTER_BOUND ( 'NONE', #98, .T. ) ;
#177 = CARTESIAN_POINT ( 'NONE',  ( 3.491481338843133986E-14, 0.6499999999999962474, 10.00000000000000178 ) ) ;
#178 = CYLINDRICAL_SURFACE ( 'NONE', #142, 0.6499999999999969136 ) ;
#179 = CC_DESIGN_DATE_AND_TIME_ASSIGNMENT ( #119, #184, ( #125 ) ) ;
#180 = DIRECTION ( 'NONE',  ( -4.275831445896958607E-31, -1.000000000000000000, -1.224646799147353207E-16 ) ) ;
#181 = CALENDAR_DATE ( 2021, 15, 10 ) ;
#182 = AXIS2_PLACEMENT_3D ( 'NONE', #200, #24, #92 ) ;
#183 = APPLICATION_PROTOCOL_DEFINITION ( 'international standard', 'config_control_design', 1994, #155 ) ;
#184 = DATE_TIME_ROLE ( 'classification_date' ) ;
#185 = LOCAL_TIME ( 15, 34, 25.00000000000000000, #70 ) ;
#186 = EDGE_LOOP ( 'NONE', ( #159 ) ) ;
#187 = ADVANCED_FACE ( 'NONE', ( #66 ), #83, .T. ) ;
#188 = DIRECTION ( 'NONE',  ( -3.491481338843133355E-15, 1.224646799147353207E-16, -1.000000000000000000 ) ) ;
#189 = DIRECTION ( 'NONE',  ( -3.491481338843133355E-15, 1.224646799147353207E-16, -1.000000000000000000 ) ) ;
#190 = FACE_OUTER_BOUND ( 'NONE', #124, .T. ) ;
#191 = CARTESIAN_POINT ( 'NONE',  ( 8.260169325426320351E-16, -2.897277385463632135E-17, 0.2365806522730332928 ) ) ;
#192 = PRODUCT ( '31575', '31575', '', ( #72 ) ) ;
#193 = PLANE ( 'NONE',  #195 ) ;
#194 = EDGE_CURVE ( 'NONE', #32, #32, #107, .T. ) ;
#195 = AXIS2_PLACEMENT_3D ( 'NONE', #49, #4, #62 ) ;
#196 = CARTESIAN_POINT ( 'NONE',  ( 3.491481338843133986E-14, 2.668805347656636736E-14, 10.00000000000000178 ) ) ;
#197 = PERSON_AND_ORGANIZATION ( #13, #91 ) ;
#198 = PERSON_AND_ORGANIZATION ( #13, #91 ) ;
#199 = AXIS2_PLACEMENT_3D ( 'NONE', #33, #100, #63 ) ;
#200 = CARTESIAN_POINT ( 'NONE',  ( 0.0000000000000000000, 0.0000000000000000000, 0.0000000000000000000 ) ) ;
#201 = CC_DESIGN_PERSON_AND_ORGANIZATION_ASSIGNMENT ( #133, #169, ( #125 ) ) ;
#202 = LOCAL_TIME ( 15, 34, 25.00000000000000000, #118 ) ;
#203 = DIRECTION ( 'NONE',  ( -3.491481338843133355E-15, 1.224646799147353207E-16, -1.000000000000000000 ) ) ;
ENDSEC;
END-ISO-10303-21;
