ISO-10303-21;
HEADER;
FILE_DESCRIPTION (( 'STEP AP203' ),
    '1' );
FILE_NAME ('31574.step',
    '2021-10-15T13:34:25',
    ( '' ),
    ( '' ),
    'SwSTEP 2.0',
    'SolidWorks 2019',
    '' );
FILE_SCHEMA (( 'CONFIG_CONTROL_DESIGN' ));
ENDSEC;

DATA;
#1 = LOCAL_TIME ( 15, 34, 25.00000000000000000, #97 ) ;
#2 = CC_DESIGN_APPROVAL ( #144, ( #156 ) ) ;
#3 = ORIENTED_EDGE ( 'NONE', *, *, #200, .F. ) ;
#4 = CC_DESIGN_PERSON_AND_ORGANIZATION_ASSIGNMENT ( #20, #81, ( #184 ) ) ;
#5 = EDGE_LOOP ( 'NONE', ( #100 ) ) ;
#6 = DIRECTION ( 'NONE',  ( -3.491481338843133355E-15, 1.224646799147353207E-16, -1.000000000000000000 ) ) ;
#7 = CONICAL_SURFACE ( 'NONE', #128, 0.5999999999999963141, 1.221730476396026388 ) ;
#8 = FACE_OUTER_BOUND ( 'NONE', #192, .T. ) ;
#9 = DIRECTION ( 'NONE',  ( -3.491481338843133355E-15, 1.224646799147353207E-16, -1.000000000000000000 ) ) ;
#10 = CC_DESIGN_APPROVAL ( #111, ( #184 ) ) ;
#11 = DIRECTION ( 'NONE',  ( 0.0000000000000000000, 1.000000000000000000, 0.0000000000000000000 ) ) ;
#12 = ADVANCED_FACE ( 'NONE', ( #67, #135 ), #177, .T. ) ;
#13 = VERTEX_POINT ( 'NONE', #105 ) ;
#14 = ORGANIZATION ( 'UNSPECIFIED', 'UNSPECIFIED', '' ) ;
#15 = DIRECTION ( 'NONE',  ( -3.491481338843133355E-15, 1.224646799147353207E-16, -1.000000000000000000 ) ) ;
#16 = PERSON_AND_ORGANIZATION_ROLE ( 'design_owner' ) ;
#17 = MANIFOLD_SOLID_BREP ( 'Corps-Déplacer/Copier1[2]', #179 ) ;
#18 = PERSON_AND_ORGANIZATION_ROLE ( 'creator' ) ;
#19 = AXIS2_PLACEMENT_3D ( 'NONE', #139, #195, #126 ) ;
#20 = PERSON_AND_ORGANIZATION ( #161, #14 ) ;
#21 = APPROVAL_PERSON_ORGANIZATION ( #65, #111, #130 ) ;
#22 = ADVANCED_FACE ( 'NONE', ( #104 ), #164, .F. ) ;
#23 = EDGE_LOOP ( 'NONE', ( #69 ) ) ;
#24 = CIRCLE ( 'NONE', #142, 0.5999999999999963141 ) ;
#25 = ORIENTED_EDGE ( 'NONE', *, *, #92, .T. ) ;
#26 = APPROVAL_PERSON_ORGANIZATION ( #36, #144, #157 ) ;
#27 = CARTESIAN_POINT ( 'NONE',  ( 7.624771685008909728E-16, 0.5999999999999963141, 0.2183821405597229925 ) ) ;
#28 = DIRECTION ( 'NONE',  ( -4.275831445896958607E-31, -1.000000000000000000, -1.224646799147353207E-16 ) ) ;
#29 = ADVANCED_FACE ( 'NONE', ( #39 ), #7, .T. ) ;
#30 =( NAMED_UNIT ( * ) SI_UNIT ( $, .STERADIAN. ) SOLID_ANGLE_UNIT ( ) );
#31 = CYLINDRICAL_SURFACE ( 'NONE', #40, 0.5999999999999967581 ) ;
#32 = AXIS2_PLACEMENT_3D ( 'NONE', #70, #75, #89 ) ;
#33 = PERSON_AND_ORGANIZATION ( #161, #14 ) ;
#34 = COORDINATED_UNIVERSAL_TIME_OFFSET ( 1, 0, .AHEAD. ) ;
#35 = PRODUCT ( '31574', '31574', '', ( #154 ) ) ;
#36 = PERSON_AND_ORGANIZATION ( #161, #14 ) ;
#37 = ADVANCED_FACE ( 'NONE', ( #56 ), #124, .T. ) ;
#38 = DATE_AND_TIME ( #51, #122 ) ;
#39 = FACE_OUTER_BOUND ( 'NONE', #23, .T. ) ;
#40 = AXIS2_PLACEMENT_3D ( 'NONE', #167, #165, #57 ) ;
#41 = EDGE_LOOP ( 'NONE', ( #84 ) ) ;
#42 = APPROVAL_PERSON_ORGANIZATION ( #172, #63, #96 ) ;
#43 = DIRECTION ( 'NONE',  ( 3.491481338843133355E-15, -1.224646799147353207E-16, 1.000000000000000000 ) ) ;
#44 = CC_DESIGN_PERSON_AND_ORGANIZATION_ASSIGNMENT ( #185, #113, ( #156 ) ) ;
#45 = ADVANCED_BREP_SHAPE_REPRESENTATION ( '31574', ( #80, #17, #74 ), #102 ) ;
#46 = CARTESIAN_POINT ( 'NONE',  ( 1.040461438975253740E-13, -3.649447461459112464E-15, 29.80000000000000071 ) ) ;
#47 =( NAMED_UNIT ( * ) PLANE_ANGLE_UNIT ( ) SI_UNIT ( $, .RADIAN. ) );
#48 = DATE_AND_TIME ( #77, #1 ) ;
#49 = LOCAL_TIME ( 15, 34, 25.00000000000000000, #127 ) ;
#50 = COORDINATED_UNIVERSAL_TIME_OFFSET ( 1, 0, .AHEAD. ) ;
#51 = CALENDAR_DATE ( 2021, 15, 10 ) ;
#52 = ADVANCED_FACE ( 'NONE', ( #8, #140 ), #31, .T. ) ;
#53 = COORDINATED_UNIVERSAL_TIME_OFFSET ( 1, 0, .AHEAD. ) ;
#54 = DIRECTION ( 'NONE',  ( -3.491481338843133355E-15, 1.224646799147353207E-16, -1.000000000000000000 ) ) ;
#55 = CARTESIAN_POINT ( 'NONE',  ( 7.624771685008906770E-16, -2.674409894274120430E-17, 0.2183821405597229093 ) ) ;
#56 = FACE_OUTER_BOUND ( 'NONE', #99, .T. ) ;
#57 = DIRECTION ( 'NONE',  ( 4.275831445896958607E-31, 1.000000000000000000, 1.224646799147353207E-16 ) ) ;
#58 = PLANE ( 'NONE',  #32 ) ;
#59 = CARTESIAN_POINT ( 'NONE',  ( 3.491481338843133986E-14, 0.5999999999999963141, 10.00000000000000178 ) ) ;
#60 = APPROVAL_STATUS ( 'not_yet_approved' ) ;
#61 = APPROVAL_DATE_TIME ( #203, #144 ) ;
#62 = APPROVAL_STATUS ( 'not_yet_approved' ) ;
#63 = APPROVAL ( #131, 'UNSPECIFIED' ) ;
#64 = DATE_TIME_ROLE ( 'creation_date' ) ;
#65 = PERSON_AND_ORGANIZATION ( #161, #14 ) ;
#66 = CONICAL_SURFACE ( 'NONE', #19, 0.3999999999999999667, 0.7853981633974512766 ) ;
#67 = FACE_OUTER_BOUND ( 'NONE', #134, .T. ) ;
#68 = EDGE_CURVE ( 'NONE', #13, #13, #148, .T. ) ;
#69 = ORIENTED_EDGE ( 'NONE', *, *, #178, .T. ) ;
#70 = CARTESIAN_POINT ( 'NONE',  ( 3.491481338843133986E-14, 2.891205793294691323E-14, 10.00000000000000178 ) ) ;
#71 = DIRECTION ( 'NONE',  ( 0.0000000000000000000, 1.000000000000000000, 0.0000000000000000000 ) ) ;
#72 = CC_DESIGN_SECURITY_CLASSIFICATION ( #184, ( #156 ) ) ;
#73 = FACE_OUTER_BOUND ( 'NONE', #160, .T. ) ;
#74 = AXIS2_PLACEMENT_3D ( 'NONE', #173, #114, #168 ) ;
#75 = DIRECTION ( 'NONE',  ( 3.491481338843133355E-15, -1.224646799147353207E-16, 1.000000000000000000 ) ) ;
#76 = DIRECTION ( 'NONE',  ( -3.491481338843133355E-15, 1.224646799147353207E-16, -1.000000000000000000 ) ) ;
#77 = CALENDAR_DATE ( 2021, 15, 10 ) ;
#78 = SHAPE_DEFINITION_REPRESENTATION ( #101, #45 ) ;
#79 = EDGE_CURVE ( 'NONE', #138, #138, #117, .T. ) ;
#80 = MANIFOLD_SOLID_BREP ( 'Corps-Déplacer/Copier1[1]', #120 ) ;
#81 = PERSON_AND_ORGANIZATION_ROLE ( 'classification_officer' ) ;
#82 = AXIS2_PLACEMENT_3D ( 'NONE', #112, #183, #28 ) ;
#83 = APPLICATION_CONTEXT ( 'configuration controlled 3d designs of mechanical parts and assemblies' ) ;
#84 = ORIENTED_EDGE ( 'NONE', *, *, #200, .T. ) ;
#85 = EDGE_LOOP ( 'NONE', ( #25 ) ) ;
#86 = CC_DESIGN_DATE_AND_TIME_ASSIGNMENT ( #38, #64, ( #186 ) ) ;
#87 = CARTESIAN_POINT ( 'NONE',  ( 0.0000000000000000000, 0.0000000000000000000, 0.0000000000000000000 ) ) ;
#88 = CARTESIAN_POINT ( 'NONE',  ( 1.047444401652940007E-13, 2.999519565323659793E-33, 30.00000000000000000 ) ) ;
#89 = DIRECTION ( 'NONE',  ( -4.275831445896958607E-31, -1.000000000000000000, -1.224646799147353207E-16 ) ) ;
#90 = CARTESIAN_POINT ( 'NONE',  ( 3.491481338843133986E-14, -1.224646799147353454E-15, 10.00000000000000178 ) ) ;
#91 = DIRECTION ( 'NONE',  ( -3.491481338843133355E-15, 1.224646799147353207E-16, -1.000000000000000000 ) ) ;
#92 = EDGE_CURVE ( 'NONE', #123, #123, #193, .T. ) ;
#93 = DIRECTION ( 'NONE',  ( 0.0000000000000000000, 1.000000000000000000, 0.0000000000000000000 ) ) ;
#94 = APPROVAL_DATE_TIME ( #115, #111 ) ;
#95 = PERSON_AND_ORGANIZATION ( #161, #14 ) ;
#96 = APPROVAL_ROLE ( '' ) ;
#97 = COORDINATED_UNIVERSAL_TIME_OFFSET ( 1, 0, .AHEAD. ) ;
#98 = AXIS2_PLACEMENT_3D ( 'NONE', #87, #54, #119 ) ;
#99 = EDGE_LOOP ( 'NONE', ( #136 ) ) ;
#100 = ORIENTED_EDGE ( 'NONE', *, *, #68, .F. ) ;
#101 = PRODUCT_DEFINITION_SHAPE ( 'NONE', 'NONE',  #186 ) ;
#102 =( GEOMETRIC_REPRESENTATION_CONTEXT ( 3 ) GLOBAL_UNCERTAINTY_ASSIGNED_CONTEXT ( ( #158 ) ) GLOBAL_UNIT_ASSIGNED_CONTEXT ( ( #108, #47, #30 ) ) REPRESENTATION_CONTEXT ( 'NONE', 'WORKASPACE' ) );
#103 = DESIGN_CONTEXT ( 'detailed design', #83, 'design' ) ;
#104 = FACE_OUTER_BOUND ( 'NONE', #5, .T. ) ;
#105 = CARTESIAN_POINT ( 'NONE',  ( 1.047444401652940007E-13, 0.3999999999999963030, 30.00000000000000000 ) ) ;
#106 = LOCAL_TIME ( 15, 34, 25.00000000000000000, #34 ) ;
#107 = APPLICATION_CONTEXT ( 'configuration controlled 3d designs of mechanical parts and assemblies' ) ;
#108 =( LENGTH_UNIT ( ) NAMED_UNIT ( * ) SI_UNIT ( .MILLI., .METRE. ) );
#109 = CIRCLE ( 'NONE', #133, 0.5999999999999999778 ) ;
#110 = DIRECTION ( 'NONE',  ( -3.491481338843133355E-15, 1.224646799147353207E-16, -1.000000000000000000 ) ) ;
#111 = APPROVAL ( #60, 'UNSPECIFIED' ) ;
#112 = CARTESIAN_POINT ( 'NONE',  ( 3.491481338843133986E-14, 2.891205793294691323E-14, 10.00000000000000178 ) ) ;
#113 = PERSON_AND_ORGANIZATION_ROLE ( 'design_supplier' ) ;
#114 = DIRECTION ( 'NONE',  ( 0.0000000000000000000, 0.0000000000000000000, 1.000000000000000000 ) ) ;
#115 = DATE_AND_TIME ( #145, #49 ) ;
#116 = CALENDAR_DATE ( 2021, 15, 10 ) ;
#117 = CIRCLE ( 'NONE', #166, 0.5999999999999974243 ) ;
#118 = ORIENTED_EDGE ( 'NONE', *, *, #178, .F. ) ;
#119 = DIRECTION ( 'NONE',  ( 4.275831445896958607E-31, 1.000000000000000000, 1.224646799147353207E-16 ) ) ;
#120 = CLOSED_SHELL ( 'NONE', ( #163, #12, #191, #22 ) ) ;
#121 = CARTESIAN_POINT ( 'NONE',  ( 3.491481338843133986E-14, 0.5999999999999963141, 10.00000000000000178 ) ) ;
#122 = LOCAL_TIME ( 15, 34, 25.00000000000000000, #50 ) ;
#123 = VERTEX_POINT ( 'NONE', #121 ) ;
#124 = PLANE ( 'NONE',  #82 ) ;
#125 = CC_DESIGN_DATE_AND_TIME_ASSIGNMENT ( #170, #201, ( #184 ) ) ;
#126 = DIRECTION ( 'NONE',  ( 0.0000000000000000000, 1.000000000000000000, 0.0000000000000000000 ) ) ;
#127 = COORDINATED_UNIVERSAL_TIME_OFFSET ( 1, 0, .AHEAD. ) ;
#128 = AXIS2_PLACEMENT_3D ( 'NONE', #151, #43, #149 ) ;
#129 = PERSON_AND_ORGANIZATION_ROLE ( 'creator' ) ;
#130 = APPROVAL_ROLE ( '' ) ;
#131 = APPROVAL_STATUS ( 'not_yet_approved' ) ;
#132 = CC_DESIGN_PERSON_AND_ORGANIZATION_ASSIGNMENT ( #33, #16, ( #35 ) ) ;
#133 = AXIS2_PLACEMENT_3D ( 'NONE', #46, #110, #71 ) ;
#134 = EDGE_LOOP ( 'NONE', ( #174 ) ) ;
#135 = FACE_OUTER_BOUND ( 'NONE', #41, .T. ) ;
#136 = ORIENTED_EDGE ( 'NONE', *, *, #92, .F. ) ;
#137 = CARTESIAN_POINT ( 'NONE',  ( 1.040461438975253740E-13, 0.5999999999999963141, 29.80000000000000071 ) ) ;
#138 = VERTEX_POINT ( 'NONE', #59 ) ;
#139 = CARTESIAN_POINT ( 'NONE',  ( 1.047444401652940007E-13, -3.673940397442059178E-15, 30.00000000000000000 ) ) ;
#140 = FACE_OUTER_BOUND ( 'NONE', #85, .T. ) ;
#141 = FACE_OUTER_BOUND ( 'NONE', #162, .T. ) ;
#142 = AXIS2_PLACEMENT_3D ( 'NONE', #55, #9, #199 ) ;
#143 = APPLICATION_PROTOCOL_DEFINITION ( 'international standard', 'config_control_design', 1994, #83 ) ;
#144 = APPROVAL ( #62, 'UNSPECIFIED' ) ;
#145 = CALENDAR_DATE ( 2021, 15, 10 ) ;
#146 = CC_DESIGN_APPROVAL ( #63, ( #186 ) ) ;
#147 = LOCAL_TIME ( 15, 34, 25.00000000000000000, #53 ) ;
#148 = CIRCLE ( 'NONE', #175, 0.3999999999999999667 ) ;
#149 = DIRECTION ( 'NONE',  ( -4.814824860968119410E-31, -1.000000000000000000, -1.355252715606888924E-16 ) ) ;
#150 = CC_DESIGN_PERSON_AND_ORGANIZATION_ASSIGNMENT ( #95, #129, ( #156 ) ) ;
#151 = CARTESIAN_POINT ( 'NONE',  ( 7.624771685008906770E-16, -2.674409894274120430E-17, 0.2183821405597229093 ) ) ;
#152 = AXIS2_PLACEMENT_3D ( 'NONE', #153, #76, #11 ) ;
#153 = CARTESIAN_POINT ( 'NONE',  ( 3.491481338843133986E-14, -1.224646799147353454E-15, 10.00000000000000178 ) ) ;
#154 = MECHANICAL_CONTEXT ( 'NONE', #107, 'mechanical' ) ;
#155 = CC_DESIGN_PERSON_AND_ORGANIZATION_ASSIGNMENT ( #189, #18, ( #186 ) ) ;
#156 = PRODUCT_DEFINITION_FORMATION_WITH_SPECIFIED_SOURCE ( 'ANY', '', #35, .NOT_KNOWN. ) ;
#157 = APPROVAL_ROLE ( '' ) ;
#158 = UNCERTAINTY_MEASURE_WITH_UNIT (LENGTH_MEASURE( 1.000000000000000082E-05 ), #108, 'distance_accuracy_value', 'NONE');
#159 = ORIENTED_EDGE ( 'NONE', *, *, #79, .T. ) ;
#160 = EDGE_LOOP ( 'NONE', ( #3 ) ) ;
#161 = PERSON ( 'UNSPECIFIED', 'UNSPECIFIED', 'UNSPECIFIED', ('UNSPECIFIED'), ('UNSPECIFIED'), ('UNSPECIFIED') ) ;
#162 = EDGE_LOOP ( 'NONE', ( #159 ) ) ;
#163 = ADVANCED_FACE ( 'NONE', ( #141 ), #58, .F. ) ;
#164 = PLANE ( 'NONE',  #198 ) ;
#165 = DIRECTION ( 'NONE',  ( -3.491481338843133355E-15, 1.224646799147353207E-16, -1.000000000000000000 ) ) ;
#166 = AXIS2_PLACEMENT_3D ( 'NONE', #90, #91, #196 ) ;
#167 = CARTESIAN_POINT ( 'NONE',  ( 0.0000000000000000000, 0.0000000000000000000, 0.0000000000000000000 ) ) ;
#168 = DIRECTION ( 'NONE',  ( 1.000000000000000000, 0.0000000000000000000, 0.0000000000000000000 ) ) ;
#169 = SECURITY_CLASSIFICATION_LEVEL ( 'unclassified' ) ;
#170 = DATE_AND_TIME ( #187, #106 ) ;
#171 = PRODUCT_RELATED_PRODUCT_CATEGORY ( 'detail', '', ( #35 ) ) ;
#172 = PERSON_AND_ORGANIZATION ( #161, #14 ) ;
#173 = CARTESIAN_POINT ( 'NONE',  ( 0.0000000000000000000, 0.0000000000000000000, 0.0000000000000000000 ) ) ;
#174 = ORIENTED_EDGE ( 'NONE', *, *, #79, .F. ) ;
#175 = AXIS2_PLACEMENT_3D ( 'NONE', #181, #15, #93 ) ;
#176 = ORIENTED_EDGE ( 'NONE', *, *, #68, .T. ) ;
#177 = CYLINDRICAL_SURFACE ( 'NONE', #98, 0.5999999999999987566 ) ;
#178 = EDGE_CURVE ( 'NONE', #182, #182, #24, .T. ) ;
#179 = CLOSED_SHELL ( 'NONE', ( #29, #52, #37 ) ) ;
#180 = VERTEX_POINT ( 'NONE', #137 ) ;
#181 = CARTESIAN_POINT ( 'NONE',  ( 1.047444401652940007E-13, -3.673940397442059178E-15, 30.00000000000000000 ) ) ;
#182 = VERTEX_POINT ( 'NONE', #27 ) ;
#183 = DIRECTION ( 'NONE',  ( 3.491481338843133355E-15, -1.224646799147353207E-16, 1.000000000000000000 ) ) ;
#184 = SECURITY_CLASSIFICATION ( '', '', #169 ) ;
#185 = PERSON_AND_ORGANIZATION ( #161, #14 ) ;
#186 = PRODUCT_DEFINITION ( 'UNKNOWN', '', #156, #103 ) ;
#187 = CALENDAR_DATE ( 2021, 15, 10 ) ;
#188 = APPLICATION_PROTOCOL_DEFINITION ( 'international standard', 'config_control_design', 1994, #107 ) ;
#189 = PERSON_AND_ORGANIZATION ( #161, #14 ) ;
#190 = EDGE_LOOP ( 'NONE', ( #176 ) ) ;
#191 = ADVANCED_FACE ( 'NONE', ( #73, #197 ), #66, .T. ) ;
#192 = EDGE_LOOP ( 'NONE', ( #118 ) ) ;
#193 = CIRCLE ( 'NONE', #152, 0.5999999999999974243 ) ;
#194 = DIRECTION ( 'NONE',  ( 4.275831445896958607E-31, 1.000000000000000000, 1.224646799147353207E-16 ) ) ;
#195 = DIRECTION ( 'NONE',  ( -3.491481338843133355E-15, 1.224646799147353207E-16, -1.000000000000000000 ) ) ;
#196 = DIRECTION ( 'NONE',  ( 0.0000000000000000000, 1.000000000000000000, 0.0000000000000000000 ) ) ;
#197 = FACE_BOUND ( 'NONE', #190, .T. ) ;
#198 = AXIS2_PLACEMENT_3D ( 'NONE', #88, #6, #194 ) ;
#199 = DIRECTION ( 'NONE',  ( 4.814824860968119410E-31, 1.000000000000000000, 1.355252715606888924E-16 ) ) ;
#200 = EDGE_CURVE ( 'NONE', #180, #180, #109, .T. ) ;
#201 = DATE_TIME_ROLE ( 'classification_date' ) ;
#202 = APPROVAL_DATE_TIME ( #48, #63 ) ;
#203 = DATE_AND_TIME ( #116, #147 ) ;
ENDSEC;
END-ISO-10303-21;
