ISO-10303-21;
HEADER;
FILE_DESCRIPTION (( 'STEP AP203' ),
    '1' );
FILE_NAME ('31573.step',
    '2021-10-15T13:34:24',
    ( '' ),
    ( '' ),
    'SwSTEP 2.0',
    'SolidWorks 2019',
    '' );
FILE_SCHEMA (( 'CONFIG_CONTROL_DESIGN' ));
ENDSEC;

DATA;
#1 = FACE_OUTER_BOUND ( 'NONE', #92, .T. ) ;
#2 = APPLICATION_CONTEXT ( 'configuration controlled 3d designs of mechanical parts and assemblies' ) ;
#3 = DIRECTION ( 'NONE',  ( -3.491481338843133355E-15, 1.224646799147353207E-16, -1.000000000000000000 ) ) ;
#4 = CARTESIAN_POINT ( 'NONE',  ( 3.491481338843133986E-14, -1.224646799147353454E-15, 10.00000000000000178 ) ) ;
#5 = CIRCLE ( 'NONE', #184, 0.5499999999999976019 ) ;
#6 = FACE_OUTER_BOUND ( 'NONE', #54, .T. ) ;
#7 = APPROVAL_PERSON_ORGANIZATION ( #38, #121, #152 ) ;
#8 = APPLICATION_PROTOCOL_DEFINITION ( 'international standard', 'config_control_design', 1994, #2 ) ;
#9 = PERSON_AND_ORGANIZATION_ROLE ( 'creator' ) ;
#10 = AXIS2_PLACEMENT_3D ( 'NONE', #124, #32, #126 ) ;
#11 = CALENDAR_DATE ( 2021, 15, 10 ) ;
#12 = ORIENTED_EDGE ( 'NONE', *, *, #91, .T. ) ;
#13 = EDGE_LOOP ( 'NONE', ( #12 ) ) ;
#14 = CC_DESIGN_PERSON_AND_ORGANIZATION_ASSIGNMENT ( #132, #150, ( #112 ) ) ;
#15 = DIRECTION ( 'NONE',  ( -3.491481338843133355E-15, 1.224646799147353207E-16, -1.000000000000000000 ) ) ;
#16 = CONICAL_SURFACE ( 'NONE', #50, 0.5499999999999964917, 1.221730476396026388 ) ;
#17 = DIRECTION ( 'NONE',  ( 0.0000000000000000000, 1.000000000000000000, 0.0000000000000000000 ) ) ;
#18 =( LENGTH_UNIT ( ) NAMED_UNIT ( * ) SI_UNIT ( .MILLI., .METRE. ) );
#19 = DIRECTION ( 'NONE',  ( -4.275831445896958607E-31, -1.000000000000000000, -1.224646799147353207E-16 ) ) ;
#20 = ADVANCED_FACE ( 'NONE', ( #107 ), #16, .T. ) ;
#21 = CARTESIAN_POINT ( 'NONE',  ( 1.047444401652940007E-13, 2.624579619658196760E-33, 30.00000000000000000 ) ) ;
#22 = APPROVAL_STATUS ( 'not_yet_approved' ) ;
#23 = ADVANCED_FACE ( 'NONE', ( #168 ), #29, .T. ) ;
#24 = SHAPE_DEFINITION_REPRESENTATION ( #165, #202 ) ;
#25 = COORDINATED_UNIVERSAL_TIME_OFFSET ( 1, 0, .AHEAD. ) ;
#26 = CC_DESIGN_PERSON_AND_ORGANIZATION_ASSIGNMENT ( #197, #9, ( #61 ) ) ;
#27 =( GEOMETRIC_REPRESENTATION_CONTEXT ( 3 ) GLOBAL_UNCERTAINTY_ASSIGNED_CONTEXT ( ( #106 ) ) GLOBAL_UNIT_ASSIGNED_CONTEXT ( ( #18, #131, #94 ) ) REPRESENTATION_CONTEXT ( 'NONE', 'WORKASPACE' ) );
#28 = EDGE_LOOP ( 'NONE', ( #143 ) ) ;
#29 = PLANE ( 'NONE',  #10 ) ;
#30 = APPLICATION_CONTEXT ( 'configuration controlled 3d designs of mechanical parts and assemblies' ) ;
#31 = LOCAL_TIME ( 15, 34, 24.00000000000000000, #51 ) ;
#32 = DIRECTION ( 'NONE',  ( 3.491481338843133355E-15, -1.224646799147353207E-16, 1.000000000000000000 ) ) ;
#33 = CARTESIAN_POINT ( 'NONE',  ( 3.491481338843133986E-14, 3.154042683594207683E-14, 10.00000000000000178 ) ) ;
#34 = DIRECTION ( 'NONE',  ( -3.491481338843133355E-15, 1.224646799147353207E-16, -1.000000000000000000 ) ) ;
#35 = DIRECTION ( 'NONE',  ( -3.491481338843133355E-15, 1.224646799147353207E-16, -1.000000000000000000 ) ) ;
#36 = CONICAL_SURFACE ( 'NONE', #156, 0.3500000000000001443, 0.7853981633974512766 ) ;
#37 = CARTESIAN_POINT ( 'NONE',  ( 1.047444401652940007E-13, 0.3499999999999964806, 30.00000000000000000 ) ) ;
#38 = PERSON_AND_ORGANIZATION ( #64, #62 ) ;
#39 = PERSON_AND_ORGANIZATION ( #64, #62 ) ;
#40 = COORDINATED_UNIVERSAL_TIME_OFFSET ( 1, 0, .AHEAD. ) ;
#41 = COORDINATED_UNIVERSAL_TIME_OFFSET ( 1, 0, .AHEAD. ) ;
#42 = ORIENTED_EDGE ( 'NONE', *, *, #71, .F. ) ;
#43 = EDGE_LOOP ( 'NONE', ( #141 ) ) ;
#44 = AXIS2_PLACEMENT_3D ( 'NONE', #49, #149, #147 ) ;
#45 = DIRECTION ( 'NONE',  ( -3.491481338843133355E-15, 1.224646799147353207E-16, -1.000000000000000000 ) ) ;
#46 = DIRECTION ( 'NONE',  ( 4.275831445896957731E-31, 1.000000000000000000, 1.224646799147353207E-16 ) ) ;
#47 = CYLINDRICAL_SURFACE ( 'NONE', #44, 0.5499999999999988232 ) ;
#48 = CARTESIAN_POINT ( 'NONE',  ( 6.989374044591500091E-16, 0.5499999999999964917, 0.2001836288464127200 ) ) ;
#49 = CARTESIAN_POINT ( 'NONE',  ( 0.0000000000000000000, 0.0000000000000000000, 0.0000000000000000000 ) ) ;
#50 = AXIS2_PLACEMENT_3D ( 'NONE', #189, #203, #90 ) ;
#51 = COORDINATED_UNIVERSAL_TIME_OFFSET ( 1, 0, .AHEAD. ) ;
#52 = APPROVAL_DATE_TIME ( #86, #96 ) ;
#53 = DATE_AND_TIME ( #103, #31 ) ;
#54 = EDGE_LOOP ( 'NONE', ( #169 ) ) ;
#55 = DIRECTION ( 'NONE',  ( -3.491481338843133355E-15, 1.224646799147353207E-16, -1.000000000000000000 ) ) ;
#56 = CARTESIAN_POINT ( 'NONE',  ( 3.491481338843133986E-14, 0.5499999999999964917, 10.00000000000000178 ) ) ;
#57 = CIRCLE ( 'NONE', #82, 0.5499999999999976019 ) ;
#58 = PRODUCT_RELATED_PRODUCT_CATEGORY ( 'detail', '', ( #112 ) ) ;
#59 = CYLINDRICAL_SURFACE ( 'NONE', #115, 0.5499999999999971578 ) ;
#60 = DIRECTION ( 'NONE',  ( 0.0000000000000000000, 0.0000000000000000000, 1.000000000000000000 ) ) ;
#61 = PRODUCT_DEFINITION ( 'UNKNOWN', '', #118, #138 ) ;
#62 = ORGANIZATION ( 'UNSPECIFIED', 'UNSPECIFIED', '' ) ;
#63 = PERSON_AND_ORGANIZATION ( #64, #62 ) ;
#64 = PERSON ( 'UNSPECIFIED', 'UNSPECIFIED', 'UNSPECIFIED', ('UNSPECIFIED'), ('UNSPECIFIED'), ('UNSPECIFIED') ) ;
#65 = CC_DESIGN_PERSON_AND_ORGANIZATION_ASSIGNMENT ( #63, #119, ( #118 ) ) ;
#66 = DATE_AND_TIME ( #11, #101 ) ;
#67 = EDGE_LOOP ( 'NONE', ( #72 ) ) ;
#68 = MANIFOLD_SOLID_BREP ( 'Corps-Déplacer/Copier1[1]', #153 ) ;
#69 = ORIENTED_EDGE ( 'NONE', *, *, #91, .F. ) ;
#70 = EDGE_LOOP ( 'NONE', ( #139 ) ) ;
#71 = EDGE_CURVE ( 'NONE', #190, #190, #5, .T. ) ;
#72 = ORIENTED_EDGE ( 'NONE', *, *, #178, .T. ) ;
#73 = CC_DESIGN_APPROVAL ( #84, ( #88 ) ) ;
#74 = DIRECTION ( 'NONE',  ( -3.491481338843133355E-15, 1.224646799147353207E-16, -1.000000000000000000 ) ) ;
#75 = VERTEX_POINT ( 'NONE', #177 ) ;
#76 = VERTEX_POINT ( 'NONE', #48 ) ;
#77 = FACE_OUTER_BOUND ( 'NONE', #43, .T. ) ;
#78 = AXIS2_PLACEMENT_3D ( 'NONE', #174, #34, #159 ) ;
#79 = CARTESIAN_POINT ( 'NONE',  ( 3.491481338843133986E-14, 0.5499999999999964917, 10.00000000000000178 ) ) ;
#80 = APPROVAL_STATUS ( 'not_yet_approved' ) ;
#81 = APPLICATION_PROTOCOL_DEFINITION ( 'international standard', 'config_control_design', 1994, #30 ) ;
#82 = AXIS2_PLACEMENT_3D ( 'NONE', #195, #194, #145 ) ;
#83 = APPROVAL_ROLE ( '' ) ;
#84 = APPROVAL ( #22, 'UNSPECIFIED' ) ;
#85 = DATE_AND_TIME ( #200, #93 ) ;
#86 = DATE_AND_TIME ( #136, #144 ) ;
#87 = CIRCLE ( 'NONE', #78, 0.3500000000000001443 ) ;
#88 = SECURITY_CLASSIFICATION ( '', '', #99 ) ;
#89 = CC_DESIGN_APPROVAL ( #96, ( #61 ) ) ;
#90 = DIRECTION ( 'NONE',  ( -3.501690807976814913E-31, -1.000000000000000000, -9.856383386231921689E-17 ) ) ;
#91 = EDGE_CURVE ( 'NONE', #76, #76, #122, .T. ) ;
#92 = EDGE_LOOP ( 'NONE', ( #187 ) ) ;
#93 = LOCAL_TIME ( 15, 34, 24.00000000000000000, #40 ) ;
#94 =( NAMED_UNIT ( * ) SI_UNIT ( $, .STERADIAN. ) SOLID_ANGLE_UNIT ( ) );
#95 = PLANE ( 'NONE',  #142 ) ;
#96 = APPROVAL ( #80, 'UNSPECIFIED' ) ;
#97 = DIRECTION ( 'NONE',  ( 4.275831445896958607E-31, 1.000000000000000000, 1.224646799147353207E-16 ) ) ;
#98 = DIRECTION ( 'NONE',  ( 1.000000000000000000, 0.0000000000000000000, 0.0000000000000000000 ) ) ;
#99 = SECURITY_CLASSIFICATION_LEVEL ( 'unclassified' ) ;
#100 = PERSON_AND_ORGANIZATION ( #64, #62 ) ;
#101 = LOCAL_TIME ( 15, 34, 24.00000000000000000, #25 ) ;
#102 = ADVANCED_FACE ( 'NONE', ( #158, #161 ), #36, .T. ) ;
#103 = CALENDAR_DATE ( 2021, 15, 10 ) ;
#104 = AXIS2_PLACEMENT_3D ( 'NONE', #201, #60, #98 ) ;
#105 = EDGE_CURVE ( 'NONE', #176, #176, #87, .T. ) ;
#106 = UNCERTAINTY_MEASURE_WITH_UNIT (LENGTH_MEASURE( 1.000000000000000082E-05 ), #18, 'distance_accuracy_value', 'NONE');
#107 = FACE_OUTER_BOUND ( 'NONE', #13, .T. ) ;
#108 = VERTEX_POINT ( 'NONE', #56 ) ;
#109 = FACE_OUTER_BOUND ( 'NONE', #123, .T. ) ;
#110 = CARTESIAN_POINT ( 'NONE',  ( 1.047444401652940007E-13, -3.673940397442059178E-15, 30.00000000000000000 ) ) ;
#111 = DIRECTION ( 'NONE',  ( 3.491481338843133355E-15, -1.224646799147353207E-16, 1.000000000000000000 ) ) ;
#112 = PRODUCT ( '31573', '31573', '', ( #182 ) ) ;
#113 = ADVANCED_FACE ( 'NONE', ( #77, #191 ), #47, .T. ) ;
#114 = CARTESIAN_POINT ( 'NONE',  ( 1.040461438975253740E-13, -3.649447461459112464E-15, 29.80000000000000071 ) ) ;
#115 = AXIS2_PLACEMENT_3D ( 'NONE', #130, #74, #46 ) ;
#116 = PERSON_AND_ORGANIZATION ( #64, #62 ) ;
#117 = DATE_AND_TIME ( #198, #170 ) ;
#118 = PRODUCT_DEFINITION_FORMATION_WITH_SPECIFIED_SOURCE ( 'ANY', '', #112, .NOT_KNOWN. ) ;
#119 = PERSON_AND_ORGANIZATION_ROLE ( 'design_supplier' ) ;
#120 = APPROVAL_STATUS ( 'not_yet_approved' ) ;
#121 = APPROVAL ( #120, 'UNSPECIFIED' ) ;
#122 = CIRCLE ( 'NONE', #135, 0.5499999999999964917 ) ;
#123 = EDGE_LOOP ( 'NONE', ( #69 ) ) ;
#124 = CARTESIAN_POINT ( 'NONE',  ( 3.491481338843133986E-14, 3.154042683594207683E-14, 10.00000000000000178 ) ) ;
#125 = EDGE_LOOP ( 'NONE', ( #42 ) ) ;
#126 = DIRECTION ( 'NONE',  ( -4.275831445896958607E-31, -1.000000000000000000, -1.224646799147353207E-16 ) ) ;
#127 = ADVANCED_FACE ( 'NONE', ( #1 ), #95, .F. ) ;
#128 = DIRECTION ( 'NONE',  ( 3.501690807976814913E-31, 1.000000000000000000, 9.856383386231921689E-17 ) ) ;
#129 = CARTESIAN_POINT ( 'NONE',  ( 6.989374044591498119E-16, -2.451542403084610574E-17, 0.2001836288464126645 ) ) ;
#130 = CARTESIAN_POINT ( 'NONE',  ( 0.0000000000000000000, 0.0000000000000000000, 0.0000000000000000000 ) ) ;
#131 =( NAMED_UNIT ( * ) PLANE_ANGLE_UNIT ( ) SI_UNIT ( $, .RADIAN. ) );
#132 = PERSON_AND_ORGANIZATION ( #64, #62 ) ;
#133 = PERSON_AND_ORGANIZATION ( #64, #62 ) ;
#134 = ADVANCED_FACE ( 'NONE', ( #6 ), #157, .F. ) ;
#135 = AXIS2_PLACEMENT_3D ( 'NONE', #129, #15, #128 ) ;
#136 = CALENDAR_DATE ( 2021, 15, 10 ) ;
#137 = CC_DESIGN_DATE_AND_TIME_ASSIGNMENT ( #117, #166, ( #88 ) ) ;
#138 = DESIGN_CONTEXT ( 'detailed design', #2, 'design' ) ;
#139 = ORIENTED_EDGE ( 'NONE', *, *, #178, .F. ) ;
#140 = MANIFOLD_SOLID_BREP ( 'Corps-Déplacer/Copier1[2]', #188 ) ;
#141 = ORIENTED_EDGE ( 'NONE', *, *, #192, .F. ) ;
#142 = AXIS2_PLACEMENT_3D ( 'NONE', #21, #35, #97 ) ;
#143 = ORIENTED_EDGE ( 'NONE', *, *, #71, .T. ) ;
#144 = LOCAL_TIME ( 15, 34, 24.00000000000000000, #162 ) ;
#145 = DIRECTION ( 'NONE',  ( 0.0000000000000000000, 1.000000000000000000, 0.0000000000000000000 ) ) ;
#146 = CC_DESIGN_DATE_AND_TIME_ASSIGNMENT ( #85, #179, ( #61 ) ) ;
#147 = DIRECTION ( 'NONE',  ( 4.275831445896958607E-31, 1.000000000000000000, 1.224646799147353207E-16 ) ) ;
#148 = CC_DESIGN_APPROVAL ( #121, ( #118 ) ) ;
#149 = DIRECTION ( 'NONE',  ( -3.491481338843133355E-15, 1.224646799147353207E-16, -1.000000000000000000 ) ) ;
#150 = PERSON_AND_ORGANIZATION_ROLE ( 'design_owner' ) ;
#151 = PERSON_AND_ORGANIZATION_ROLE ( 'classification_officer' ) ;
#152 = APPROVAL_ROLE ( '' ) ;
#153 = CLOSED_SHELL ( 'NONE', ( #134, #113, #102, #127 ) ) ;
#154 = ORIENTED_EDGE ( 'NONE', *, *, #105, .T. ) ;
#155 = CC_DESIGN_PERSON_AND_ORGANIZATION_ASSIGNMENT ( #116, #164, ( #118 ) ) ;
#156 = AXIS2_PLACEMENT_3D ( 'NONE', #110, #55, #172 ) ;
#157 = PLANE ( 'NONE',  #160 ) ;
#158 = FACE_OUTER_BOUND ( 'NONE', #70, .T. ) ;
#159 = DIRECTION ( 'NONE',  ( 0.0000000000000000000, 1.000000000000000000, 0.0000000000000000000 ) ) ;
#160 = AXIS2_PLACEMENT_3D ( 'NONE', #33, #111, #19 ) ;
#161 = FACE_BOUND ( 'NONE', #186, .T. ) ;
#162 = COORDINATED_UNIVERSAL_TIME_OFFSET ( 1, 0, .AHEAD. ) ;
#163 = ADVANCED_FACE ( 'NONE', ( #109, #175 ), #59, .T. ) ;
#164 = PERSON_AND_ORGANIZATION_ROLE ( 'creator' ) ;
#165 = PRODUCT_DEFINITION_SHAPE ( 'NONE', 'NONE',  #61 ) ;
#166 = DATE_TIME_ROLE ( 'classification_date' ) ;
#167 = APPROVAL_DATE_TIME ( #53, #121 ) ;
#168 = FACE_OUTER_BOUND ( 'NONE', #125, .T. ) ;
#169 = ORIENTED_EDGE ( 'NONE', *, *, #192, .T. ) ;
#170 = LOCAL_TIME ( 15, 34, 24.00000000000000000, #41 ) ;
#171 = CC_DESIGN_PERSON_AND_ORGANIZATION_ASSIGNMENT ( #133, #151, ( #88 ) ) ;
#172 = DIRECTION ( 'NONE',  ( 0.0000000000000000000, 1.000000000000000000, 0.0000000000000000000 ) ) ;
#173 = AXIS2_PLACEMENT_3D ( 'NONE', #114, #45, #17 ) ;
#174 = CARTESIAN_POINT ( 'NONE',  ( 1.047444401652940007E-13, -3.673940397442059178E-15, 30.00000000000000000 ) ) ;
#175 = FACE_OUTER_BOUND ( 'NONE', #28, .T. ) ;
#176 = VERTEX_POINT ( 'NONE', #37 ) ;
#177 = CARTESIAN_POINT ( 'NONE',  ( 1.040461438975253740E-13, 0.5499999999999964917, 29.80000000000000071 ) ) ;
#178 = EDGE_CURVE ( 'NONE', #75, #75, #196, .T. ) ;
#179 = DATE_TIME_ROLE ( 'creation_date' ) ;
#180 = APPROVAL_ROLE ( '' ) ;
#181 = APPROVAL_PERSON_ORGANIZATION ( #100, #96, #180 ) ;
#182 = MECHANICAL_CONTEXT ( 'NONE', #30, 'mechanical' ) ;
#183 = CC_DESIGN_SECURITY_CLASSIFICATION ( #88, ( #118 ) ) ;
#184 = AXIS2_PLACEMENT_3D ( 'NONE', #4, #3, #193 ) ;
#185 = APPROVAL_PERSON_ORGANIZATION ( #39, #84, #83 ) ;
#186 = EDGE_LOOP ( 'NONE', ( #154 ) ) ;
#187 = ORIENTED_EDGE ( 'NONE', *, *, #105, .F. ) ;
#188 = CLOSED_SHELL ( 'NONE', ( #20, #163, #23 ) ) ;
#189 = CARTESIAN_POINT ( 'NONE',  ( 6.989374044591498119E-16, -2.451542403084610574E-17, 0.2001836288464126645 ) ) ;
#190 = VERTEX_POINT ( 'NONE', #79 ) ;
#191 = FACE_OUTER_BOUND ( 'NONE', #67, .T. ) ;
#192 = EDGE_CURVE ( 'NONE', #108, #108, #57, .T. ) ;
#193 = DIRECTION ( 'NONE',  ( 0.0000000000000000000, 1.000000000000000000, 0.0000000000000000000 ) ) ;
#194 = DIRECTION ( 'NONE',  ( -3.491481338843133355E-15, 1.224646799147353207E-16, -1.000000000000000000 ) ) ;
#195 = CARTESIAN_POINT ( 'NONE',  ( 3.491481338843133986E-14, -1.224646799147353454E-15, 10.00000000000000178 ) ) ;
#196 = CIRCLE ( 'NONE', #173, 0.5500000000000001554 ) ;
#197 = PERSON_AND_ORGANIZATION ( #64, #62 ) ;
#198 = CALENDAR_DATE ( 2021, 15, 10 ) ;
#199 = APPROVAL_DATE_TIME ( #66, #84 ) ;
#200 = CALENDAR_DATE ( 2021, 15, 10 ) ;
#201 = CARTESIAN_POINT ( 'NONE',  ( 0.0000000000000000000, 0.0000000000000000000, 0.0000000000000000000 ) ) ;
#202 = ADVANCED_BREP_SHAPE_REPRESENTATION ( '31573', ( #68, #140, #104 ), #27 ) ;
#203 = DIRECTION ( 'NONE',  ( 3.491481338843133355E-15, -1.224646799147353207E-16, 1.000000000000000000 ) ) ;
ENDSEC;
END-ISO-10303-21;
