ISO-10303-21;
HEADER;
FILE_DESCRIPTION (( 'STEP AP203' ),
    '1' );
FILE_NAME ('31560.step',
    '2021-10-15T13:34:24',
    ( '' ),
    ( '' ),
    'SwSTEP 2.0',
    'SolidWorks 2019',
    '' );
FILE_SCHEMA (( 'CONFIG_CONTROL_DESIGN' ));
ENDSEC;

DATA;
#1 = FACE_OUTER_BOUND ( 'NONE', #86, .T. ) ;
#2 = VERTEX_POINT ( 'NONE', #106 ) ;
#3 = LOCAL_TIME ( 15, 34, 24.00000000000000000, #95 ) ;
#4 = ADVANCED_FACE ( 'NONE', ( #179 ), #99, .T. ) ;
#5 = APPROVAL_DATE_TIME ( #129, #84 ) ;
#6 = APPROVAL_PERSON_ORGANIZATION ( #65, #104, #175 ) ;
#7 = CIRCLE ( 'NONE', #190, 0.7499999999999923395 ) ;
#8 = AXIS2_PLACEMENT_3D ( 'NONE', #37, #21, #87 ) ;
#9 = FACE_OUTER_BOUND ( 'NONE', #119, .T. ) ;
#10 = PLANE ( 'NONE',  #155 ) ;
#11 = DIRECTION ( 'NONE',  ( -3.491481338843133355E-15, 1.224646799147353207E-16, -1.000000000000000000 ) ) ;
#12 = AXIS2_PLACEMENT_3D ( 'NONE', #29, #57, #94 ) ;
#13 =( LENGTH_UNIT ( ) NAMED_UNIT ( * ) SI_UNIT ( .MILLI., .METRE. ) );
#14 = LOCAL_TIME ( 15, 34, 24.00000000000000000, #188 ) ;
#15 = DATE_AND_TIME ( #98, #3 ) ;
#16 = CC_DESIGN_PERSON_AND_ORGANIZATION_ASSIGNMENT ( #192, #32, ( #176 ) ) ;
#17 = PERSON_AND_ORGANIZATION_ROLE ( 'design_supplier' ) ;
#18 = DATE_TIME_ROLE ( 'classification_date' ) ;
#19 = CLOSED_SHELL ( 'NONE', ( #142, #195, #60, #160 ) ) ;
#20 = EDGE_LOOP ( 'NONE', ( #88 ) ) ;
#21 = DIRECTION ( 'NONE',  ( 3.491481338843133355E-15, -1.224646799147353207E-16, 1.000000000000000000 ) ) ;
#22 = DIRECTION ( 'NONE',  ( -3.491481338843133355E-15, 1.224646799147353207E-16, -1.000000000000000000 ) ) ;
#23 = UNCERTAINTY_MEASURE_WITH_UNIT (LENGTH_MEASURE( 1.000000000000000082E-05 ), #13, 'distance_accuracy_value', 'NONE');
#24 =( NAMED_UNIT ( * ) SI_UNIT ( $, .STERADIAN. ) SOLID_ANGLE_UNIT ( ) );
#25 = CARTESIAN_POINT ( 'NONE',  ( 9.530964606261085391E-16, -3.343012367842633358E-17, 0.2729776756996522558 ) ) ;
#26 = DIRECTION ( 'NONE',  ( -3.491481338843133355E-15, 1.224646799147353207E-16, -1.000000000000000000 ) ) ;
#27 = AXIS2_PLACEMENT_3D ( 'NONE', #186, #38, #44 ) ;
#28 = EDGE_CURVE ( 'NONE', #154, #154, #42, .T. ) ;
#29 = CARTESIAN_POINT ( 'NONE',  ( 1.036969957636410417E-13, -3.637200993467639107E-15, 29.69999999999999574 ) ) ;
#30 = DATE_AND_TIME ( #191, #14 ) ;
#31 = APPROVAL_STATUS ( 'not_yet_approved' ) ;
#32 = PERSON_AND_ORGANIZATION_ROLE ( 'classification_officer' ) ;
#33 = APPROVAL_ROLE ( '' ) ;
#34 = PERSON_AND_ORGANIZATION_ROLE ( 'creator' ) ;
#35 = PRODUCT_RELATED_PRODUCT_CATEGORY ( 'detail', '', ( #111 ) ) ;
#36 = CONICAL_SURFACE ( 'NONE', #63, 0.4499999999999949041, 0.7853981633974453924 ) ;
#37 = CARTESIAN_POINT ( 'NONE',  ( 9.530964606261085391E-16, -3.343012367842633358E-17, 0.2729776756996522558 ) ) ;
#38 = DIRECTION ( 'NONE',  ( -3.491481338843133355E-15, 1.224646799147353207E-16, -1.000000000000000000 ) ) ;
#39 = DESIGN_CONTEXT ( 'detailed design', #107, 'design' ) ;
#40 = CARTESIAN_POINT ( 'NONE',  ( 3.491481338843133986E-14, -1.224646799147353454E-15, 10.00000000000000178 ) ) ;
#41 = CARTESIAN_POINT ( 'NONE',  ( 1.047444401652940007E-13, 0.4499999999999911848, 30.00000000000000000 ) ) ;
#42 = CIRCLE ( 'NONE', #125, 0.4499999999999949041 ) ;
#43 = PRODUCT_DEFINITION_SHAPE ( 'NONE', 'NONE',  #74 ) ;
#44 = DIRECTION ( 'NONE',  ( 4.275831445896958607E-31, 1.000000000000000000, 1.224646799147353207E-16 ) ) ;
#45 = APPROVAL_STATUS ( 'not_yet_approved' ) ;
#46 = APPROVAL_PERSON_ORGANIZATION ( #116, #183, #33 ) ;
#47 = CALENDAR_DATE ( 2021, 15, 10 ) ;
#48 = COORDINATED_UNIVERSAL_TIME_OFFSET ( 1, 0, .AHEAD. ) ;
#49 = MECHANICAL_CONTEXT ( 'NONE', #97, 'mechanical' ) ;
#50 = ORIENTED_EDGE ( 'NONE', *, *, #201, .T. ) ;
#51 = CC_DESIGN_DATE_AND_TIME_ASSIGNMENT ( #96, #177, ( #74 ) ) ;
#52 = CIRCLE ( 'NONE', #75, 0.7499999999999923395 ) ;
#53 = PERSON ( 'UNSPECIFIED', 'UNSPECIFIED', 'UNSPECIFIED', ('UNSPECIFIED'), ('UNSPECIFIED'), ('UNSPECIFIED') ) ;
#54 = FACE_OUTER_BOUND ( 'NONE', #20, .T. ) ;
#55 = DIRECTION ( 'NONE',  ( 0.0000000000000000000, 1.000000000000000000, 0.0000000000000000000 ) ) ;
#56 = VERTEX_POINT ( 'NONE', #123 ) ;
#57 = DIRECTION ( 'NONE',  ( -3.491481338843133355E-15, 1.224646799147353207E-16, -1.000000000000000000 ) ) ;
#58 = PRODUCT_DEFINITION_FORMATION_WITH_SPECIFIED_SOURCE ( 'ANY', '', #111, .NOT_KNOWN. ) ;
#59 = PLANE ( 'NONE',  #166 ) ;
#60 = ADVANCED_FACE ( 'NONE', ( #9, #71 ), #36, .T. ) ;
#61 = MANIFOLD_SOLID_BREP ( 'Corps-Déplacer/Copier1[2]', #109 ) ;
#62 = SECURITY_CLASSIFICATION_LEVEL ( 'unclassified' ) ;
#63 = AXIS2_PLACEMENT_3D ( 'NONE', #135, #11, #187 ) ;
#64 = PERSON_AND_ORGANIZATION ( #53, #139 ) ;
#65 = PERSON_AND_ORGANIZATION ( #53, #139 ) ;
#66 = CC_DESIGN_APPROVAL ( #183, ( #176 ) ) ;
#67 = CC_DESIGN_PERSON_AND_ORGANIZATION_ASSIGNMENT ( #157, #17, ( #58 ) ) ;
#68 = ORIENTED_EDGE ( 'NONE', *, *, #28, .F. ) ;
#69 = ORIENTED_EDGE ( 'NONE', *, *, #174, .T. ) ;
#70 = ADVANCED_FACE ( 'NONE', ( #54 ), #10, .T. ) ;
#71 = FACE_BOUND ( 'NONE', #100, .T. ) ;
#72 = DIRECTION ( 'NONE',  ( -4.275831445896958607E-31, -1.000000000000000000, -1.224646799147353207E-16 ) ) ;
#73 = CYLINDRICAL_SURFACE ( 'NONE', #27, 0.7499999999999935607 ) ;
#74 = PRODUCT_DEFINITION ( 'UNKNOWN', '', #58, #39 ) ;
#75 = AXIS2_PLACEMENT_3D ( 'NONE', #40, #90, #105 ) ;
#76 = DIRECTION ( 'NONE',  ( 3.491481338843133355E-15, -1.224646799147353207E-16, 1.000000000000000000 ) ) ;
#77 = DIRECTION ( 'NONE',  ( 3.491481338843133355E-15, -1.224646799147353207E-16, 1.000000000000000000 ) ) ;
#78 = PLANE ( 'NONE',  #91 ) ;
#79 = PERSON_AND_ORGANIZATION_ROLE ( 'design_owner' ) ;
#80 = SHAPE_DEFINITION_REPRESENTATION ( #43, #148 ) ;
#81 = APPROVAL_ROLE ( '' ) ;
#82 = LOCAL_TIME ( 15, 34, 24.00000000000000000, #193 ) ;
#83 = DATE_AND_TIME ( #128, #101 ) ;
#84 = APPROVAL ( #45, 'UNSPECIFIED' ) ;
#85 = ORIENTED_EDGE ( 'NONE', *, *, #118, .F. ) ;
#86 = EDGE_LOOP ( 'NONE', ( #50 ) ) ;
#87 = DIRECTION ( 'NONE',  ( -5.135813185032689956E-31, -1.000000000000000000, -1.445602896647356420E-16 ) ) ;
#88 = ORIENTED_EDGE ( 'NONE', *, *, #170, .F. ) ;
#89 = ORIENTED_EDGE ( 'NONE', *, *, #174, .F. ) ;
#90 = DIRECTION ( 'NONE',  ( -3.491481338843133355E-15, 1.224646799147353207E-16, -1.000000000000000000 ) ) ;
#91 = AXIS2_PLACEMENT_3D ( 'NONE', #136, #124, #108 ) ;
#92 = FACE_OUTER_BOUND ( 'NONE', #131, .T. ) ;
#93 =( NAMED_UNIT ( * ) PLANE_ANGLE_UNIT ( ) SI_UNIT ( $, .RADIAN. ) );
#94 = DIRECTION ( 'NONE',  ( 0.0000000000000000000, 1.000000000000000000, 0.0000000000000000000 ) ) ;
#95 = COORDINATED_UNIVERSAL_TIME_OFFSET ( 1, 0, .AHEAD. ) ;
#96 = DATE_AND_TIME ( #171, #82 ) ;
#97 = APPLICATION_CONTEXT ( 'configuration controlled 3d designs of mechanical parts and assemblies' ) ;
#98 = CALENDAR_DATE ( 2021, 15, 10 ) ;
#99 = CONICAL_SURFACE ( 'NONE', #8, 0.7499999999999911182, 1.221730476396026388 ) ;
#100 = EDGE_LOOP ( 'NONE', ( #181 ) ) ;
#101 = LOCAL_TIME ( 15, 34, 24.00000000000000000, #48 ) ;
#102 = AXIS2_PLACEMENT_3D ( 'NONE', #161, #115, #158 ) ;
#103 = ORIENTED_EDGE ( 'NONE', *, *, #118, .T. ) ;
#104 = APPROVAL ( #31, 'UNSPECIFIED' ) ;
#105 = DIRECTION ( 'NONE',  ( 0.0000000000000000000, 1.000000000000000000, 0.0000000000000000000 ) ) ;
#106 = CARTESIAN_POINT ( 'NONE',  ( 1.036969957636410417E-13, 0.7499999999999911182, 29.69999999999999574 ) ) ;
#107 = APPLICATION_CONTEXT ( 'configuration controlled 3d designs of mechanical parts and assemblies' ) ;
#108 = DIRECTION ( 'NONE',  ( 4.275831445896958607E-31, 1.000000000000000000, 1.224646799147353207E-16 ) ) ;
#109 = CLOSED_SHELL ( 'NONE', ( #4, #189, #70 ) ) ;
#110 = CIRCLE ( 'NONE', #169, 0.7499999999999911182 ) ;
#111 = PRODUCT ( '31560', '31560', '', ( #49 ) ) ;
#112 = CARTESIAN_POINT ( 'NONE',  ( 3.491481338843133986E-14, 0.7499999999999911182, 10.00000000000000178 ) ) ;
#113 = PERSON_AND_ORGANIZATION ( #53, #139 ) ;
#114 = PERSON_AND_ORGANIZATION ( #53, #139 ) ;
#115 = DIRECTION ( 'NONE',  ( 0.0000000000000000000, 0.0000000000000000000, 1.000000000000000000 ) ) ;
#116 = PERSON_AND_ORGANIZATION ( #53, #139 ) ;
#117 = COORDINATED_UNIVERSAL_TIME_OFFSET ( 1, 0, .AHEAD. ) ;
#118 = EDGE_CURVE ( 'NONE', #2, #2, #180, .T. ) ;
#119 = EDGE_LOOP ( 'NONE', ( #85 ) ) ;
#120 = EDGE_LOOP ( 'NONE', ( #196 ) ) ;
#121 = CARTESIAN_POINT ( 'NONE',  ( 0.0000000000000000000, 0.0000000000000000000, 0.0000000000000000000 ) ) ;
#122 = CARTESIAN_POINT ( 'NONE',  ( 3.491481338843133986E-14, 5.624099184981890080E-33, 10.00000000000000178 ) ) ;
#123 = CARTESIAN_POINT ( 'NONE',  ( 9.530964606261089335E-16, 0.7499999999999911182, 0.2729776756996523668 ) ) ;
#124 = DIRECTION ( 'NONE',  ( -3.491481338843133355E-15, 1.224646799147353207E-16, -1.000000000000000000 ) ) ;
#125 = AXIS2_PLACEMENT_3D ( 'NONE', #198, #22, #151 ) ;
#126 = DIRECTION ( 'NONE',  ( -3.491481338843133355E-15, 1.224646799147353207E-16, -1.000000000000000000 ) ) ;
#127 = APPLICATION_PROTOCOL_DEFINITION ( 'international standard', 'config_control_design', 1994, #107 ) ;
#128 = CALENDAR_DATE ( 2021, 15, 10 ) ;
#129 = DATE_AND_TIME ( #47, #163 ) ;
#130 = CC_DESIGN_PERSON_AND_ORGANIZATION_ASSIGNMENT ( #113, #34, ( #58 ) ) ;
#131 = EDGE_LOOP ( 'NONE', ( #103 ) ) ;
#132 = APPROVAL_PERSON_ORGANIZATION ( #146, #84, #81 ) ;
#133 = ORIENTED_EDGE ( 'NONE', *, *, #170, .T. ) ;
#134 = AXIS2_PLACEMENT_3D ( 'NONE', #121, #26, #182 ) ;
#135 = CARTESIAN_POINT ( 'NONE',  ( 1.047444401652940007E-13, -3.673940397442059178E-15, 30.00000000000000000 ) ) ;
#136 = CARTESIAN_POINT ( 'NONE',  ( 1.047444401652940007E-13, 3.374459510989086563E-33, 30.00000000000000000 ) ) ;
#137 = MANIFOLD_SOLID_BREP ( 'Corps-Déplacer/Copier1[1]', #19 ) ;
#138 = CARTESIAN_POINT ( 'NONE',  ( 3.491481338843133986E-14, 5.624099184981890080E-33, 10.00000000000000178 ) ) ;
#139 = ORGANIZATION ( 'UNSPECIFIED', 'UNSPECIFIED', '' ) ;
#140 =( GEOMETRIC_REPRESENTATION_CONTEXT ( 3 ) GLOBAL_UNCERTAINTY_ASSIGNED_CONTEXT ( ( #23 ) ) GLOBAL_UNIT_ASSIGNED_CONTEXT ( ( #13, #93, #24 ) ) REPRESENTATION_CONTEXT ( 'NONE', 'WORKASPACE' ) );
#141 = DIRECTION ( 'NONE',  ( -4.275831445896958607E-31, -1.000000000000000000, -1.224646799147353207E-16 ) ) ;
#142 = ADVANCED_FACE ( 'NONE', ( #1 ), #59, .F. ) ;
#143 = FACE_OUTER_BOUND ( 'NONE', #120, .T. ) ;
#144 = FACE_OUTER_BOUND ( 'NONE', #194, .T. ) ;
#145 = APPROVAL_STATUS ( 'not_yet_approved' ) ;
#146 = PERSON_AND_ORGANIZATION ( #53, #139 ) ;
#147 = CC_DESIGN_APPROVAL ( #104, ( #58 ) ) ;
#148 = ADVANCED_BREP_SHAPE_REPRESENTATION ( '31560', ( #137, #61, #102 ), #140 ) ;
#149 = EDGE_LOOP ( 'NONE', ( #89 ) ) ;
#150 = CC_DESIGN_SECURITY_CLASSIFICATION ( #176, ( #58 ) ) ;
#151 = DIRECTION ( 'NONE',  ( 0.0000000000000000000, 1.000000000000000000, 0.0000000000000000000 ) ) ;
#152 = CC_DESIGN_PERSON_AND_ORGANIZATION_ASSIGNMENT ( #64, #79, ( #111 ) ) ;
#153 = CARTESIAN_POINT ( 'NONE',  ( 3.491481338843133986E-14, 0.7499999999999911182, 10.00000000000000178 ) ) ;
#154 = VERTEX_POINT ( 'NONE', #41 ) ;
#155 = AXIS2_PLACEMENT_3D ( 'NONE', #138, #76, #72 ) ;
#156 = VERTEX_POINT ( 'NONE', #153 ) ;
#157 = PERSON_AND_ORGANIZATION ( #53, #139 ) ;
#158 = DIRECTION ( 'NONE',  ( 1.000000000000000000, 0.0000000000000000000, 0.0000000000000000000 ) ) ;
#159 = APPROVAL_DATE_TIME ( #30, #104 ) ;
#160 = ADVANCED_FACE ( 'NONE', ( #202 ), #78, .F. ) ;
#161 = CARTESIAN_POINT ( 'NONE',  ( 0.0000000000000000000, 0.0000000000000000000, 0.0000000000000000000 ) ) ;
#162 = CC_DESIGN_PERSON_AND_ORGANIZATION_ASSIGNMENT ( #114, #172, ( #74 ) ) ;
#163 = LOCAL_TIME ( 15, 34, 24.00000000000000000, #117 ) ;
#164 = APPROVAL_DATE_TIME ( #15, #183 ) ;
#165 = EDGE_LOOP ( 'NONE', ( #69 ) ) ;
#166 = AXIS2_PLACEMENT_3D ( 'NONE', #122, #77, #141 ) ;
#167 = FACE_OUTER_BOUND ( 'NONE', #149, .T. ) ;
#168 = DIRECTION ( 'NONE',  ( -3.491481338843133355E-15, 1.224646799147353207E-16, -1.000000000000000000 ) ) ;
#169 = AXIS2_PLACEMENT_3D ( 'NONE', #25, #126, #200 ) ;
#170 = EDGE_CURVE ( 'NONE', #156, #156, #7, .T. ) ;
#171 = CALENDAR_DATE ( 2021, 15, 10 ) ;
#172 = PERSON_AND_ORGANIZATION_ROLE ( 'creator' ) ;
#173 = APPLICATION_PROTOCOL_DEFINITION ( 'international standard', 'config_control_design', 1994, #97 ) ;
#174 = EDGE_CURVE ( 'NONE', #56, #56, #110, .T. ) ;
#175 = APPROVAL_ROLE ( '' ) ;
#176 = SECURITY_CLASSIFICATION ( '', '', #62 ) ;
#177 = DATE_TIME_ROLE ( 'creation_date' ) ;
#178 = CC_DESIGN_APPROVAL ( #84, ( #74 ) ) ;
#179 = FACE_OUTER_BOUND ( 'NONE', #165, .T. ) ;
#180 = CIRCLE ( 'NONE', #12, 0.7499999999999947820 ) ;
#181 = ORIENTED_EDGE ( 'NONE', *, *, #28, .T. ) ;
#182 = DIRECTION ( 'NONE',  ( 4.275831445896957731E-31, 1.000000000000000000, 1.224646799147353207E-16 ) ) ;
#183 = APPROVAL ( #145, 'UNSPECIFIED' ) ;
#184 = CYLINDRICAL_SURFACE ( 'NONE', #134, 0.7499999999999917843 ) ;
#185 = VERTEX_POINT ( 'NONE', #112 ) ;
#186 = CARTESIAN_POINT ( 'NONE',  ( 0.0000000000000000000, 0.0000000000000000000, 0.0000000000000000000 ) ) ;
#187 = DIRECTION ( 'NONE',  ( 0.0000000000000000000, 1.000000000000000000, 0.0000000000000000000 ) ) ;
#188 = COORDINATED_UNIVERSAL_TIME_OFFSET ( 1, 0, .AHEAD. ) ;
#189 = ADVANCED_FACE ( 'NONE', ( #167, #144 ), #184, .T. ) ;
#190 = AXIS2_PLACEMENT_3D ( 'NONE', #203, #168, #55 ) ;
#191 = CALENDAR_DATE ( 2021, 15, 10 ) ;
#192 = PERSON_AND_ORGANIZATION ( #53, #139 ) ;
#193 = COORDINATED_UNIVERSAL_TIME_OFFSET ( 1, 0, .AHEAD. ) ;
#194 = EDGE_LOOP ( 'NONE', ( #133 ) ) ;
#195 = ADVANCED_FACE ( 'NONE', ( #143, #92 ), #73, .T. ) ;
#196 = ORIENTED_EDGE ( 'NONE', *, *, #201, .F. ) ;
#197 = CC_DESIGN_DATE_AND_TIME_ASSIGNMENT ( #83, #18, ( #176 ) ) ;
#198 = CARTESIAN_POINT ( 'NONE',  ( 1.047444401652940007E-13, -3.673940397442059178E-15, 30.00000000000000000 ) ) ;
#199 = EDGE_LOOP ( 'NONE', ( #68 ) ) ;
#200 = DIRECTION ( 'NONE',  ( 5.135813185032689956E-31, 1.000000000000000000, 1.445602896647356420E-16 ) ) ;
#201 = EDGE_CURVE ( 'NONE', #185, #185, #52, .T. ) ;
#202 = FACE_OUTER_BOUND ( 'NONE', #199, .T. ) ;
#203 = CARTESIAN_POINT ( 'NONE',  ( 3.491481338843133986E-14, -1.224646799147353454E-15, 10.00000000000000178 ) ) ;
ENDSEC;
END-ISO-10303-21;
