ISO-10303-21;
HEADER;
FILE_DESCRIPTION (( 'STEP AP203' ),
    '1' );
FILE_NAME ('31506.step',
    '2021-10-15T13:34:23',
    ( '' ),
    ( '' ),
    'SwSTEP 2.0',
    'SolidWorks 2019',
    '' );
FILE_SCHEMA (( 'CONFIG_CONTROL_DESIGN' ));
ENDSEC;

DATA;
#1 = COORDINATED_UNIVERSAL_TIME_OFFSET ( 1, 0, .AHEAD. ) ;
#2 = CC_DESIGN_PERSON_AND_ORGANIZATION_ASSIGNMENT ( #46, #168, ( #37 ) ) ;
#3 = PLANE ( 'NONE',  #177 ) ;
#4 = DIRECTION ( 'NONE',  ( 4.275831445896958607E-31, 1.000000000000000000, 1.224646799147353207E-16 ) ) ;
#5 = CARTESIAN_POINT ( 'NONE',  ( 2.444036937190193601E-13, 1.987181712026952025E-32, 70.00000000000000000 ) ) ;
#6 = DIRECTION ( 'NONE',  ( -3.491481338843133355E-15, 1.224646799147353207E-16, -1.000000000000000000 ) ) ;
#7 = EDGE_CURVE ( 'NONE', #186, #186, #149, .T. ) ;
#8 = PERSON_AND_ORGANIZATION ( #189, #55 ) ;
#9 = AXIS2_PLACEMENT_3D ( 'NONE', #113, #143, #36 ) ;
#10 = COORDINATED_UNIVERSAL_TIME_OFFSET ( 1, 0, .AHEAD. ) ;
#11 = EDGE_LOOP ( 'NONE', ( #144 ) ) ;
#12 =( LENGTH_UNIT ( ) NAMED_UNIT ( * ) SI_UNIT ( .MILLI., .METRE. ) );
#13 = APPLICATION_CONTEXT ( 'configuration controlled 3d designs of mechanical parts and assemblies' ) ;
#14 = AXIS2_PLACEMENT_3D ( 'NONE', #39, #6, #4 ) ;
#15 = EDGE_CURVE ( 'NONE', #130, #130, #70, .T. ) ;
#16 = FACE_OUTER_BOUND ( 'NONE', #40, .T. ) ;
#17 = DIRECTION ( 'NONE',  ( 0.0000000000000000000, 1.000000000000000000, 0.0000000000000000000 ) ) ;
#18 = FACE_OUTER_BOUND ( 'NONE', #89, .T. ) ;
#19 = PRODUCT_DEFINITION_FORMATION_WITH_SPECIFIED_SOURCE ( 'ANY', '', #84, .NOT_KNOWN. ) ;
#20 = DIRECTION ( 'NONE',  ( -3.491481338843133355E-15, 1.224646799147353207E-16, -1.000000000000000000 ) ) ;
#21 = CARTESIAN_POINT ( 'NONE',  ( 1.082359215041371340E-13, 2.512097635958605746E-32, 31.00000000000000000 ) ) ;
#22 = APPLICATION_CONTEXT ( 'configuration controlled 3d designs of mechanical parts and assemblies' ) ;
#23 = PERSON_AND_ORGANIZATION ( #189, #55 ) ;
#24 = EDGE_LOOP ( 'NONE', ( #26 ) ) ;
#25 = CARTESIAN_POINT ( 'NONE',  ( 0.0000000000000000000, 0.0000000000000000000, 0.0000000000000000000 ) ) ;
#26 = ORIENTED_EDGE ( 'NONE', *, *, #7, .T. ) ;
#27 = APPROVAL_ROLE ( '' ) ;
#28 = COORDINATED_UNIVERSAL_TIME_OFFSET ( 1, 0, .AHEAD. ) ;
#29 = CIRCLE ( 'NONE', #63, 3.350000000000000089 ) ;
#30 = AXIS2_PLACEMENT_3D ( 'NONE', #25, #57, #42 ) ;
#31 = MANIFOLD_SOLID_BREP ( 'Corps-Déplacer/Copier1[2]', #95 ) ;
#32 = FACE_OUTER_BOUND ( 'NONE', #11, .T. ) ;
#33 = CONICAL_SURFACE ( 'NONE', #147, 2.650000000000004796, 0.7853981633974439491 ) ;
#34 = APPROVAL_PERSON_ORGANIZATION ( #185, #77, #179 ) ;
#35 = CC_DESIGN_DATE_AND_TIME_ASSIGNMENT ( #136, #187, ( #202 ) ) ;
#36 = DIRECTION ( 'NONE',  ( 4.275831445896958607E-31, 1.000000000000000000, 1.224646799147353207E-16 ) ) ;
#37 = PRODUCT_DEFINITION ( 'UNKNOWN', '', #19, #142 ) ;
#38 = AXIS2_PLACEMENT_3D ( 'NONE', #65, #193, #17 ) ;
#39 = CARTESIAN_POINT ( 'NONE',  ( 0.0000000000000000000, 0.0000000000000000000, 0.0000000000000000000 ) ) ;
#40 = EDGE_LOOP ( 'NONE', ( #152 ) ) ;
#41 = CALENDAR_DATE ( 2021, 15, 10 ) ;
#42 = DIRECTION ( 'NONE',  ( 1.000000000000000000, 0.0000000000000000000, 0.0000000000000000000 ) ) ;
#43 = EDGE_LOOP ( 'NONE', ( #196 ) ) ;
#44 = MECHANICAL_CONTEXT ( 'NONE', #13, 'mechanical' ) ;
#45 = VERTEX_POINT ( 'NONE', #201 ) ;
#46 = PERSON_AND_ORGANIZATION ( #189, #55 ) ;
#47 = PERSON_AND_ORGANIZATION ( #189, #55 ) ;
#48 = DIRECTION ( 'NONE',  ( 3.491481338843133355E-15, -1.224646799147353207E-16, 1.000000000000000000 ) ) ;
#49 = EDGE_CURVE ( 'NONE', #45, #45, #111, .T. ) ;
#50 = LOCAL_TIME ( 15, 34, 23.00000000000000000, #1 ) ;
#51 = FACE_OUTER_BOUND ( 'NONE', #43, .T. ) ;
#52 = DIRECTION ( 'NONE',  ( 3.491481338843133355E-15, -1.224646799147353207E-16, 1.000000000000000000 ) ) ;
#53 = DIRECTION ( 'NONE',  ( 0.0000000000000000000, 1.000000000000000000, 0.0000000000000000000 ) ) ;
#54 = ORIENTED_EDGE ( 'NONE', *, *, #7, .F. ) ;
#55 = ORGANIZATION ( 'UNSPECIFIED', 'UNSPECIFIED', '' ) ;
#56 = DATE_AND_TIME ( #120, #112 ) ;
#57 = DIRECTION ( 'NONE',  ( 0.0000000000000000000, 0.0000000000000000000, 1.000000000000000000 ) ) ;
#58 = APPLICATION_PROTOCOL_DEFINITION ( 'international standard', 'config_control_design', 1994, #13 ) ;
#59 = APPROVAL_PERSON_ORGANIZATION ( #47, #167, #96 ) ;
#60 = CALENDAR_DATE ( 2021, 15, 10 ) ;
#61 = DATE_AND_TIME ( #122, #105 ) ;
#62 = APPROVAL_DATE_TIME ( #61, #167 ) ;
#63 = AXIS2_PLACEMENT_3D ( 'NONE', #190, #157, #80 ) ;
#64 = ADVANCED_FACE ( 'NONE', ( #83 ), #126, .F. ) ;
#65 = CARTESIAN_POINT ( 'NONE',  ( 2.444036937190193601E-13, -8.572527594031472993E-15, 70.00000000000000000 ) ) ;
#66 = DIRECTION ( 'NONE',  ( 4.275831445896958607E-31, 1.000000000000000000, 1.224646799147353207E-16 ) ) ;
#67 = CC_DESIGN_PERSON_AND_ORGANIZATION_ASSIGNMENT ( #137, #97, ( #202 ) ) ;
#68 = CARTESIAN_POINT ( 'NONE',  ( 1.082359215041371340E-13, 2.512097635958605746E-32, 31.00000000000000000 ) ) ;
#69 = UNCERTAINTY_MEASURE_WITH_UNIT (LENGTH_MEASURE( 1.000000000000000082E-05 ), #12, 'distance_accuracy_value', 'NONE');
#70 = CIRCLE ( 'NONE', #38, 2.650000000000004796 ) ;
#71 = EDGE_LOOP ( 'NONE', ( #54 ) ) ;
#72 = CC_DESIGN_PERSON_AND_ORGANIZATION_ASSIGNMENT ( #8, #161, ( #19 ) ) ;
#73 = PERSON_AND_ORGANIZATION ( #189, #55 ) ;
#74 = DIRECTION ( 'NONE',  ( 3.491481338843133355E-15, -1.224646799147353207E-16, 1.000000000000000000 ) ) ;
#75 = DIRECTION ( 'NONE',  ( -4.599235688088926943E-31, -1.000000000000000000, -1.294569758191648634E-16 ) ) ;
#76 = AXIS2_PLACEMENT_3D ( 'NONE', #68, #48, #139 ) ;
#77 = APPROVAL ( #148, 'UNSPECIFIED' ) ;
#78 = SECURITY_CLASSIFICATION_LEVEL ( 'unclassified' ) ;
#79 = EDGE_CURVE ( 'NONE', #106, #106, #29, .T. ) ;
#80 = DIRECTION ( 'NONE',  ( 0.0000000000000000000, 1.000000000000000000, 0.0000000000000000000 ) ) ;
#81 = CYLINDRICAL_SURFACE ( 'NONE', #14, 3.349999999999997868 ) ;
#82 = CC_DESIGN_APPROVAL ( #172, ( #37 ) ) ;
#83 = FACE_OUTER_BOUND ( 'NONE', #118, .T. ) ;
#84 = PRODUCT ( '31506', '31506', '', ( #44 ) ) ;
#85 = DIRECTION ( 'NONE',  ( -4.275831445896958607E-31, -1.000000000000000000, -1.224646799147353207E-16 ) ) ;
#86 = ORIENTED_EDGE ( 'NONE', *, *, #15, .T. ) ;
#87 = CARTESIAN_POINT ( 'NONE',  ( 4.257164190796664290E-15, 3.349999999999996092, 1.219300284791793310 ) ) ;
#88 = ADVANCED_FACE ( 'NONE', ( #140 ), #100, .T. ) ;
#89 = EDGE_LOOP ( 'NONE', ( #93 ) ) ;
#90 = PRODUCT_DEFINITION_SHAPE ( 'NONE', 'NONE',  #37 ) ;
#91 = APPLICATION_PROTOCOL_DEFINITION ( 'international standard', 'config_control_design', 1994, #22 ) ;
#92 = PERSON_AND_ORGANIZATION ( #189, #55 ) ;
#93 = ORIENTED_EDGE ( 'NONE', *, *, #79, .T. ) ;
#94 = DATE_TIME_ROLE ( 'creation_date' ) ;
#95 = CLOSED_SHELL ( 'NONE', ( #181, #154, #88 ) ) ;
#96 = APPROVAL_ROLE ( '' ) ;
#97 = PERSON_AND_ORGANIZATION_ROLE ( 'classification_officer' ) ;
#98 = DIRECTION ( 'NONE',  ( -3.491481338843133355E-15, 1.224646799147353207E-16, -1.000000000000000000 ) ) ;
#99 = CARTESIAN_POINT ( 'NONE',  ( 1.082359215041371340E-13, -3.796405077356795115E-15, 31.00000000000000000 ) ) ;
#100 = PLANE ( 'NONE',  #76 ) ;
#101 = CARTESIAN_POINT ( 'NONE',  ( 4.257164190796662712E-15, -1.493212190969725126E-16, 1.219300284791792865 ) ) ;
#102 = ADVANCED_FACE ( 'NONE', ( #16 ), #3, .F. ) ;
#103 = DATE_AND_TIME ( #116, #171 ) ;
#104 = CARTESIAN_POINT ( 'NONE',  ( 2.444036937190193601E-13, 2.649999999999995914, 70.00000000000000000 ) ) ;
#105 = LOCAL_TIME ( 15, 34, 23.00000000000000000, #125 ) ;
#106 = VERTEX_POINT ( 'NONE', #184 ) ;
#107 = DATE_AND_TIME ( #41, #109 ) ;
#108 = CC_DESIGN_PERSON_AND_ORGANIZATION_ASSIGNMENT ( #73, #163, ( #84 ) ) ;
#109 = LOCAL_TIME ( 15, 34, 23.00000000000000000, #131 ) ;
#110 = CYLINDRICAL_SURFACE ( 'NONE', #9, 3.350000000000002309 ) ;
#111 = CIRCLE ( 'NONE', #119, 3.350000000000000089 ) ;
#112 = LOCAL_TIME ( 15, 34, 23.00000000000000000, #28 ) ;
#113 = CARTESIAN_POINT ( 'NONE',  ( 0.0000000000000000000, 0.0000000000000000000, 0.0000000000000000000 ) ) ;
#114 = CARTESIAN_POINT ( 'NONE',  ( 2.419596567818291352E-13, -8.486802318091157127E-15, 69.29999999999999716 ) ) ;
#115 = CARTESIAN_POINT ( 'NONE',  ( 2.444036937190193601E-13, -8.572527594031472993E-15, 70.00000000000000000 ) ) ;
#116 = CALENDAR_DATE ( 2021, 15, 10 ) ;
#117 = VERTEX_POINT ( 'NONE', #198 ) ;
#118 = EDGE_LOOP ( 'NONE', ( #146 ) ) ;
#119 = AXIS2_PLACEMENT_3D ( 'NONE', #99, #20, #129 ) ;
#120 = CALENDAR_DATE ( 2021, 15, 10 ) ;
#121 = EDGE_CURVE ( 'NONE', #117, #117, #141, .T. ) ;
#122 = CALENDAR_DATE ( 2021, 15, 10 ) ;
#123 = ADVANCED_FACE ( 'NONE', ( #175, #192 ), #33, .T. ) ;
#124 = APPROVAL_STATUS ( 'not_yet_approved' ) ;
#125 = COORDINATED_UNIVERSAL_TIME_OFFSET ( 1, 0, .AHEAD. ) ;
#126 = PLANE ( 'NONE',  #188 ) ;
#127 = DIRECTION ( 'NONE',  ( -3.491481338843133355E-15, 1.224646799147353207E-16, -1.000000000000000000 ) ) ;
#128 = FACE_OUTER_BOUND ( 'NONE', #24, .T. ) ;
#129 = DIRECTION ( 'NONE',  ( 0.0000000000000000000, 1.000000000000000000, 0.0000000000000000000 ) ) ;
#130 = VERTEX_POINT ( 'NONE', #104 ) ;
#131 = COORDINATED_UNIVERSAL_TIME_OFFSET ( 1, 0, .AHEAD. ) ;
#132 = CC_DESIGN_DATE_AND_TIME_ASSIGNMENT ( #56, #94, ( #37 ) ) ;
#133 = AXIS2_PLACEMENT_3D ( 'NONE', #173, #98, #160 ) ;
#134 = APPROVAL_PERSON_ORGANIZATION ( #92, #172, #27 ) ;
#135 = ADVANCED_FACE ( 'NONE', ( #32, #51 ), #110, .T. ) ;
#136 = DATE_AND_TIME ( #60, #50 ) ;
#137 = PERSON_AND_ORGANIZATION ( #189, #55 ) ;
#138 = AXIS2_PLACEMENT_3D ( 'NONE', #114, #127, #53 ) ;
#139 = DIRECTION ( 'NONE',  ( -4.275831445896958607E-31, -1.000000000000000000, -1.224646799147353207E-16 ) ) ;
#140 = FACE_OUTER_BOUND ( 'NONE', #183, .T. ) ;
#141 = CIRCLE ( 'NONE', #138, 3.350000000000004974 ) ;
#142 = DESIGN_CONTEXT ( 'detailed design', #22, 'design' ) ;
#143 = DIRECTION ( 'NONE',  ( -3.491481338843133355E-15, 1.224646799147353207E-16, -1.000000000000000000 ) ) ;
#144 = ORIENTED_EDGE ( 'NONE', *, *, #49, .F. ) ;
#145 = APPROVAL_DATE_TIME ( #103, #77 ) ;
#146 = ORIENTED_EDGE ( 'NONE', *, *, #49, .T. ) ;
#147 = AXIS2_PLACEMENT_3D ( 'NONE', #115, #176, #158 ) ;
#148 = APPROVAL_STATUS ( 'not_yet_approved' ) ;
#149 = CIRCLE ( 'NONE', #133, 3.349999999999996092 ) ;
#150 = ADVANCED_BREP_SHAPE_REPRESENTATION ( '31506', ( #162, #31, #30 ), #199 ) ;
#151 = APPROVAL_DATE_TIME ( #107, #172 ) ;
#152 = ORIENTED_EDGE ( 'NONE', *, *, #15, .F. ) ;
#153 = APPROVAL_STATUS ( 'not_yet_approved' ) ;
#154 = ADVANCED_FACE ( 'NONE', ( #174, #18 ), #81, .T. ) ;
#155 = CONICAL_SURFACE ( 'NONE', #191, 3.349999999999996092, 1.221730476396026388 ) ;
#156 = CLOSED_SHELL ( 'NONE', ( #64, #135, #123, #102 ) ) ;
#157 = DIRECTION ( 'NONE',  ( -3.491481338843133355E-15, 1.224646799147353207E-16, -1.000000000000000000 ) ) ;
#158 = DIRECTION ( 'NONE',  ( 0.0000000000000000000, 1.000000000000000000, 0.0000000000000000000 ) ) ;
#159 = CC_DESIGN_SECURITY_CLASSIFICATION ( #202, ( #19 ) ) ;
#160 = DIRECTION ( 'NONE',  ( 4.599235688088926943E-31, 1.000000000000000000, 1.294569758191648634E-16 ) ) ;
#161 = PERSON_AND_ORGANIZATION_ROLE ( 'creator' ) ;
#162 = MANIFOLD_SOLID_BREP ( 'Corps-Déplacer/Copier1[1]', #156 ) ;
#163 = PERSON_AND_ORGANIZATION_ROLE ( 'design_owner' ) ;
#164 = CC_DESIGN_PERSON_AND_ORGANIZATION_ASSIGNMENT ( #23, #197, ( #19 ) ) ;
#165 =( NAMED_UNIT ( * ) SI_UNIT ( $, .STERADIAN. ) SOLID_ANGLE_UNIT ( ) );
#166 = ORIENTED_EDGE ( 'NONE', *, *, #79, .F. ) ;
#167 = APPROVAL ( #124, 'UNSPECIFIED' ) ;
#168 = PERSON_AND_ORGANIZATION_ROLE ( 'creator' ) ;
#169 = CC_DESIGN_APPROVAL ( #167, ( #202 ) ) ;
#170 = SHAPE_DEFINITION_REPRESENTATION ( #90, #150 ) ;
#171 = LOCAL_TIME ( 15, 34, 23.00000000000000000, #10 ) ;
#172 = APPROVAL ( #153, 'UNSPECIFIED' ) ;
#173 = CARTESIAN_POINT ( 'NONE',  ( 4.257164190796662712E-15, -1.493212190969725126E-16, 1.219300284791792865 ) ) ;
#174 = FACE_OUTER_BOUND ( 'NONE', #71, .T. ) ;
#175 = FACE_OUTER_BOUND ( 'NONE', #180, .T. ) ;
#176 = DIRECTION ( 'NONE',  ( -3.491481338843133355E-15, 1.224646799147353207E-16, -1.000000000000000000 ) ) ;
#177 = AXIS2_PLACEMENT_3D ( 'NONE', #5, #194, #66 ) ;
#178 = EDGE_LOOP ( 'NONE', ( #86 ) ) ;
#179 = APPROVAL_ROLE ( '' ) ;
#180 = EDGE_LOOP ( 'NONE', ( #195 ) ) ;
#181 = ADVANCED_FACE ( 'NONE', ( #128 ), #155, .T. ) ;
#182 =( NAMED_UNIT ( * ) PLANE_ANGLE_UNIT ( ) SI_UNIT ( $, .RADIAN. ) );
#183 = EDGE_LOOP ( 'NONE', ( #166 ) ) ;
#184 = CARTESIAN_POINT ( 'NONE',  ( 1.082359215041371340E-13, 3.349999999999996092, 31.00000000000000000 ) ) ;
#185 = PERSON_AND_ORGANIZATION ( #189, #55 ) ;
#186 = VERTEX_POINT ( 'NONE', #87 ) ;
#187 = DATE_TIME_ROLE ( 'classification_date' ) ;
#188 = AXIS2_PLACEMENT_3D ( 'NONE', #21, #52, #85 ) ;
#189 = PERSON ( 'UNSPECIFIED', 'UNSPECIFIED', 'UNSPECIFIED', ('UNSPECIFIED'), ('UNSPECIFIED'), ('UNSPECIFIED') ) ;
#190 = CARTESIAN_POINT ( 'NONE',  ( 1.082359215041371340E-13, -3.796405077356795115E-15, 31.00000000000000000 ) ) ;
#191 = AXIS2_PLACEMENT_3D ( 'NONE', #101, #74, #75 ) ;
#192 = FACE_BOUND ( 'NONE', #178, .T. ) ;
#193 = DIRECTION ( 'NONE',  ( -3.491481338843133355E-15, 1.224646799147353207E-16, -1.000000000000000000 ) ) ;
#194 = DIRECTION ( 'NONE',  ( -3.491481338843133355E-15, 1.224646799147353207E-16, -1.000000000000000000 ) ) ;
#195 = ORIENTED_EDGE ( 'NONE', *, *, #121, .F. ) ;
#196 = ORIENTED_EDGE ( 'NONE', *, *, #121, .T. ) ;
#197 = PERSON_AND_ORGANIZATION_ROLE ( 'design_supplier' ) ;
#198 = CARTESIAN_POINT ( 'NONE',  ( 2.419596567818291352E-13, 3.349999999999996092, 69.29999999999999716 ) ) ;
#199 =( GEOMETRIC_REPRESENTATION_CONTEXT ( 3 ) GLOBAL_UNCERTAINTY_ASSIGNED_CONTEXT ( ( #69 ) ) GLOBAL_UNIT_ASSIGNED_CONTEXT ( ( #12, #182, #165 ) ) REPRESENTATION_CONTEXT ( 'NONE', 'WORKASPACE' ) );
#200 = CC_DESIGN_APPROVAL ( #77, ( #19 ) ) ;
#201 = CARTESIAN_POINT ( 'NONE',  ( 1.082359215041371340E-13, 3.349999999999996092, 31.00000000000000000 ) ) ;
#202 = SECURITY_CLASSIFICATION ( '', '', #78 ) ;
#203 = PRODUCT_RELATED_PRODUCT_CATEGORY ( 'detail', '', ( #84 ) ) ;
ENDSEC;
END-ISO-10303-21;
