ISO-10303-21;
HEADER;
FILE_DESCRIPTION (( 'STEP AP203' ),
    '1' );
FILE_NAME ('31451.step',
    '2021-11-17T09:16:04',
    ( '' ),
    ( '' ),
    'SwSTEP 2.0',
    'SolidWorks 2019',
    '' );
FILE_SCHEMA (( 'CONFIG_CONTROL_DESIGN' ));
ENDSEC;

DATA;
#1 = CYLINDRICAL_SURFACE ( 'NONE', #146, 1.999999999999999112 ) ;
#2 = DIRECTION ( 'NONE',  ( -3.491481338843133355E-15, 1.224646799147353207E-16, -1.000000000000000000 ) ) ;
#3 = AXIS2_PLACEMENT_3D ( 'NONE', #149, #57, #128 ) ;
#4 = CARTESIAN_POINT ( 'NONE',  ( -6.413747168845438786E-31, 0.0000000000000000000, -1.836970198721029934E-16 ) ) ;
#5 = MANIFOLD_SOLID_BREP ( 'Corps-Déplacer/Copier1[1]', #190 ) ;
#6 = DIRECTION ( 'NONE',  ( -3.491481338843133355E-15, 1.224646799147353207E-16, -1.000000000000000000 ) ) ;
#7 = PERSON_AND_ORGANIZATION_ROLE ( 'design_owner' ) ;
#8 = MECHANICAL_CONTEXT ( 'NONE', #36, 'mechanical' ) ;
#9 = AXIS2_PLACEMENT_3D ( 'NONE', #178, #230, #157 ) ;
#10 = PERSON_AND_ORGANIZATION ( #30, #105 ) ;
#11 = SECURITY_CLASSIFICATION_LEVEL ( 'unclassified' ) ;
#12 = CONICAL_SURFACE ( 'NONE', #87, 2.000000000000000000, 0.7853981633974512766 ) ;
#13 = ORIENTED_EDGE ( 'NONE', *, *, #101, .F. ) ;
#14 = ORIENTED_EDGE ( 'NONE', *, *, #131, .T. ) ;
#15 = ORIENTED_EDGE ( 'NONE', *, *, #211, .F. ) ;
#16 = EDGE_LOOP ( 'NONE', ( #159 ) ) ;
#17 = ADVANCED_FACE ( 'NONE', ( #220, #199 ), #1, .T. ) ;
#18 = EDGE_LOOP ( 'NONE', ( #240 ) ) ;
#19 = DIRECTION ( 'NONE',  ( -4.333342374871280669E-31, -1.000000000000000000, -1.219727444046192488E-16 ) ) ;
#20 = EDGE_CURVE ( 'NONE', #209, #209, #214, .T. ) ;
#21 = AXIS2_PLACEMENT_3D ( 'NONE', #99, #69, #47 ) ;
#22 = FACE_OUTER_BOUND ( 'NONE', #125, .T. ) ;
#23 = PLANE ( 'NONE',  #136 ) ;
#24 = DIRECTION ( 'NONE',  ( -4.275831445896958607E-31, -1.000000000000000000, -1.224646799147353207E-16 ) ) ;
#25 = DIRECTION ( 'NONE',  ( 3.491481338843133355E-15, -0.0000000000000000000, 1.000000000000000000 ) ) ;
#26 = VERTEX_POINT ( 'NONE', #192 ) ;
#27 = VERTEX_POINT ( 'NONE', #177 ) ;
#28 = APPROVAL_PERSON_ORGANIZATION ( #67, #241, #175 ) ;
#29 = COORDINATED_UNIVERSAL_TIME_OFFSET ( 1, 0, .AHEAD. ) ;
#30 = PERSON ( 'UNSPECIFIED', 'UNSPECIFIED', 'UNSPECIFIED', ('UNSPECIFIED'), ('UNSPECIFIED'), ('UNSPECIFIED') ) ;
#31 = LOCAL_TIME ( 10, 16, 4.000000000000000000, #239 ) ;
#32 = CC_DESIGN_PERSON_AND_ORGANIZATION_ASSIGNMENT ( #65, #193, ( #43 ) ) ;
#33 = EDGE_LOOP ( 'NONE', ( #181 ) ) ;
#34 = CARTESIAN_POINT ( 'NONE',  ( 3.491481338843132093E-14, 0.0000000000000000000, 9.999999999999996447 ) ) ;
#35 = CARTESIAN_POINT ( 'NONE',  ( 6.982962677686250933E-16, -2.435834570415085380E-17, 0.1999999999999995393 ) ) ;
#36 = APPLICATION_CONTEXT ( 'configuration controlled 3d designs of mechanical parts and assemblies' ) ;
#37 = CC_DESIGN_PERSON_AND_ORGANIZATION_ASSIGNMENT ( #168, #188, ( #161 ) ) ;
#38 = AXIS2_PLACEMENT_3D ( 'NONE', #73, #113, #152 ) ;
#39 = FACE_OUTER_BOUND ( 'NONE', #50, .T. ) ;
#40 = DIRECTION ( 'NONE',  ( -3.491481338843133355E-15, 1.224646799147353207E-16, -1.000000000000000000 ) ) ;
#41 = CYLINDRICAL_SURFACE ( 'NONE', #202, 3.000000000000000000 ) ;
#42 = AXIS2_PLACEMENT_3D ( 'NONE', #226, #2, #186 ) ;
#43 = SECURITY_CLASSIFICATION ( '', '', #11 ) ;
#44 = PERSON_AND_ORGANIZATION ( #30, #105 ) ;
#45 = EDGE_CURVE ( 'NONE', #103, #103, #92, .T. ) ;
#46 = APPROVAL_STATUS ( 'not_yet_approved' ) ;
#47 = DIRECTION ( 'NONE',  ( -4.275831445896958607E-31, -1.000000000000000000, -1.224646799147353207E-16 ) ) ;
#48 = CARTESIAN_POINT ( 'NONE',  ( 1.990144363140586139E-13, 2.499999999999992895, 57.00000000000000000 ) ) ;
#49 = APPROVAL_DATE_TIME ( #212, #134 ) ;
#50 = EDGE_LOOP ( 'NONE', ( #13 ) ) ;
#51 = APPROVAL_PERSON_ORGANIZATION ( #158, #123, #83 ) ;
#52 = EDGE_LOOP ( 'NONE', ( #218 ) ) ;
#53 = EDGE_LOOP ( 'NONE', ( #219 ) ) ;
#54 = FACE_OUTER_BOUND ( 'NONE', #106, .T. ) ;
#55 = DIRECTION ( 'NONE',  ( 3.491481338843133355E-15, -0.0000000000000000000, 1.000000000000000000 ) ) ;
#56 = CC_DESIGN_PERSON_AND_ORGANIZATION_ASSIGNMENT ( #10, #7, ( #198 ) ) ;
#57 = DIRECTION ( 'NONE',  ( 3.491481338843133355E-15, -0.0000000000000000000, 1.000000000000000000 ) ) ;
#58 = APPROVAL_PERSON_ORGANIZATION ( #210, #134, #216 ) ;
#59 = DIRECTION ( 'NONE',  ( 1.000000000000000000, 0.0000000000000000000, -3.469446951953617344E-15 ) ) ;
#60 = ADVANCED_FACE ( 'NONE', ( #132, #126 ), #234, .T. ) ;
#61 = DIRECTION ( 'NONE',  ( 4.275831445896958607E-31, 1.000000000000000000, 1.224646799147353207E-16 ) ) ;
#62 = AXIS2_PLACEMENT_3D ( 'NONE', #98, #170, #151 ) ;
#63 = VERTEX_POINT ( 'NONE', #80 ) ;
#64 = ADVANCED_FACE ( 'NONE', ( #22, #206 ), #41, .T. ) ;
#65 = PERSON_AND_ORGANIZATION ( #30, #105 ) ;
#66 = APPROVAL_DATE_TIME ( #236, #123 ) ;
#67 = PERSON_AND_ORGANIZATION ( #30, #105 ) ;
#68 = APPLICATION_PROTOCOL_DEFINITION ( 'international standard', 'config_control_design', 1994, #74 ) ;
#69 = DIRECTION ( 'NONE',  ( 3.491481338843133355E-15, -1.224646799147353207E-16, 1.000000000000000000 ) ) ;
#70 = AXIS2_PLACEMENT_3D ( 'NONE', #148, #55, #79 ) ;
#71 = EDGE_LOOP ( 'NONE', ( #90 ) ) ;
#72 = CC_DESIGN_PERSON_AND_ORGANIZATION_ASSIGNMENT ( #143, #112, ( #161 ) ) ;
#73 = CARTESIAN_POINT ( 'NONE',  ( 1.972686956446370283E-13, -6.919254415182544548E-15, 56.49999999999999289 ) ) ;
#74 = APPLICATION_CONTEXT ( 'configuration controlled 3d designs of mechanical parts and assemblies' ) ;
#75 = FACE_OUTER_BOUND ( 'NONE', #18, .T. ) ;
#76 = CARTESIAN_POINT ( 'NONE',  ( 6.982962677686250933E-16, -2.435834570415085380E-17, 0.1999999999999995393 ) ) ;
#77 = CIRCLE ( 'NONE', #215, 3.000000000000000000 ) ;
#78 = CC_DESIGN_SECURITY_CLASSIFICATION ( #43, ( #161 ) ) ;
#79 = DIRECTION ( 'NONE',  ( 1.000000000000000000, 0.0000000000000000000, -3.491481338843133355E-15 ) ) ;
#80 = CARTESIAN_POINT ( 'NONE',  ( 6.982962677686242059E-16, -2.000000000000000000, 0.1999999999999993172 ) ) ;
#81 = CC_DESIGN_PERSON_AND_ORGANIZATION_ASSIGNMENT ( #44, #139, ( #222 ) ) ;
#82 = CC_DESIGN_APPROVAL ( #134, ( #161 ) ) ;
#83 = APPROVAL_ROLE ( '' ) ;
#84 = DESIGN_CONTEXT ( 'detailed design', #74, 'design' ) ;
#85 = ADVANCED_FACE ( 'NONE', ( #39, #75 ), #141, .F. ) ;
#86 = MANIFOLD_SOLID_BREP ( 'Corps-Déplacer/Copier1[2]', #221 ) ;
#87 = AXIS2_PLACEMENT_3D ( 'NONE', #76, #95, #19 ) ;
#88 = EDGE_LOOP ( 'NONE', ( #242 ) ) ;
#89 = ORIENTED_EDGE ( 'NONE', *, *, #45, .T. ) ;
#90 = ORIENTED_EDGE ( 'NONE', *, *, #171, .T. ) ;
#91 = FACE_OUTER_BOUND ( 'NONE', #53, .T. ) ;
#92 = CIRCLE ( 'NONE', #42, 2.500000000000000000 ) ;
#93 = AXIS2_PLACEMENT_3D ( 'NONE', #35, #94, #166 ) ;
#94 = DIRECTION ( 'NONE',  ( 3.491481338843133355E-15, -1.217917285207545432E-16, 1.000000000000000000 ) ) ;
#95 = DIRECTION ( 'NONE',  ( 3.491481338843133355E-15, -1.217917285207545432E-16, 1.000000000000000000 ) ) ;
#96 = PLANE ( 'NONE',  #111 ) ;
#97 = LOCAL_TIME ( 10, 16, 4.000000000000000000, #140 ) ;
#98 = CARTESIAN_POINT ( 'NONE',  ( -7.654203852401938520E-31, 2.669980524493169660E-32, -2.192251113373580447E-16 ) ) ;
#99 = CARTESIAN_POINT ( 'NONE',  ( 3.491481338843132724E-14, 2.249639673992785317E-32, 9.999999999999998224 ) ) ;
#100 = APPROVAL_DATE_TIME ( #133, #241 ) ;
#101 = EDGE_CURVE ( 'NONE', #26, #26, #77, .T. ) ;
#102 =( NAMED_UNIT ( * ) PLANE_ANGLE_UNIT ( ) SI_UNIT ( $, .RADIAN. ) );
#103 = VERTEX_POINT ( 'NONE', #48 ) ;
#104 = CALENDAR_DATE ( 2021, 17, 11 ) ;
#105 = ORGANIZATION ( 'UNSPECIFIED', 'UNSPECIFIED', '' ) ;
#106 = EDGE_LOOP ( 'NONE', ( #217 ) ) ;
#107 = CIRCLE ( 'NONE', #93, 2.000000000000000000 ) ;
#108 = LOCAL_TIME ( 10, 16, 4.000000000000000000, #29 ) ;
#109 = DIRECTION ( 'NONE',  ( 3.491481338843133355E-15, -0.0000000000000000000, 1.000000000000000000 ) ) ;
#110 = DIRECTION ( 'NONE',  ( -1.000000000000000000, 0.0000000000000000000, 3.469446951953614189E-15 ) ) ;
#111 = AXIS2_PLACEMENT_3D ( 'NONE', #183, #201, #24 ) ;
#112 = PERSON_AND_ORGANIZATION_ROLE ( 'creator' ) ;
#113 = DIRECTION ( 'NONE',  ( -3.491481338843133355E-15, 1.224646799147353207E-16, -1.000000000000000000 ) ) ;
#114 = CARTESIAN_POINT ( 'NONE',  ( 1.990144363140586139E-13, 1.874699728327311610E-32, 57.00000000000000000 ) ) ;
#115 = ADVANCED_FACE ( 'NONE', ( #54 ), #23, .T. ) ;
#116 = CIRCLE ( 'NONE', #235, 2.999999999999999556 ) ;
#117 = DATE_AND_TIME ( #138, #31 ) ;
#118 =( NAMED_UNIT ( * ) SI_UNIT ( $, .STERADIAN. ) SOLID_ANGLE_UNIT ( ) );
#119 = COORDINATED_UNIVERSAL_TIME_OFFSET ( 1, 0, .AHEAD. ) ;
#120 = UNCERTAINTY_MEASURE_WITH_UNIT (LENGTH_MEASURE( 1.000000000000000082E-05 ), #196, 'distance_accuracy_value', 'NONE');
#121 = VERTEX_POINT ( 'NONE', #137 ) ;
#122 = PLANE ( 'NONE',  #21 ) ;
#123 = APPROVAL ( #207, 'UNSPECIFIED' ) ;
#124 = ORIENTED_EDGE ( 'NONE', *, *, #211, .T. ) ;
#125 = EDGE_LOOP ( 'NONE', ( #14 ) ) ;
#126 = FACE_OUTER_BOUND ( 'NONE', #88, .T. ) ;
#127 = DIRECTION ( 'NONE',  ( -3.491481338843133355E-15, 1.224646799147353207E-16, -1.000000000000000000 ) ) ;
#128 = DIRECTION ( 'NONE',  ( 1.000000000000000000, 0.0000000000000000000, -3.469446951953617344E-15 ) ) ;
#129 = CC_DESIGN_APPROVAL ( #123, ( #222 ) ) ;
#130 = FACE_OUTER_BOUND ( 'NONE', #33, .T. ) ;
#131 = EDGE_CURVE ( 'NONE', #27, #27, #116, .T. ) ;
#132 = FACE_BOUND ( 'NONE', #163, .T. ) ;
#133 = DATE_AND_TIME ( #228, #108 ) ;
#134 = APPROVAL ( #46, 'UNSPECIFIED' ) ;
#135 = APPLICATION_PROTOCOL_DEFINITION ( 'international standard', 'config_control_design', 1994, #36 ) ;
#136 = AXIS2_PLACEMENT_3D ( 'NONE', #174, #6, #164 ) ;
#137 = CARTESIAN_POINT ( 'NONE',  ( 2.000000000000033307, 0.0000000000000000000, 9.999999999999989342 ) ) ;
#138 = CALENDAR_DATE ( 2021, 17, 11 ) ;
#139 = PERSON_AND_ORGANIZATION_ROLE ( 'creator' ) ;
#140 = COORDINATED_UNIVERSAL_TIME_OFFSET ( 1, 0, .AHEAD. ) ;
#141 = TOROIDAL_SURFACE ( 'NONE', #70, 9.999999999999998224, 8.000000000000000000 ) ;
#142 = EDGE_LOOP ( 'NONE', ( #162 ) ) ;
#143 = PERSON_AND_ORGANIZATION ( #30, #105 ) ;
#144 = EDGE_LOOP ( 'NONE', ( #124 ) ) ;
#145 = EDGE_LOOP ( 'NONE', ( #15 ) ) ;
#146 = AXIS2_PLACEMENT_3D ( 'NONE', #4, #205, #185 ) ;
#147 = CARTESIAN_POINT ( 'NONE',  ( 1.972686956446370283E-13, -6.919254415182544548E-15, 56.49999999999999289 ) ) ;
#148 = CARTESIAN_POINT ( 'NONE',  ( 3.491481338843132724E-14, 0.0000000000000000000, 9.999999999999998224 ) ) ;
#149 = CARTESIAN_POINT ( 'NONE',  ( 3.491481338843132093E-14, 0.0000000000000000000, 9.999999999999996447 ) ) ;
#150 = ADVANCED_FACE ( 'NONE', ( #225, #223 ), #12, .T. ) ;
#151 = DIRECTION ( 'NONE',  ( -4.252335473556634068E-31, -1.000000000000000000, -1.217917285207545186E-16 ) ) ;
#152 = DIRECTION ( 'NONE',  ( 0.0000000000000000000, 1.000000000000000000, 0.0000000000000000000 ) ) ;
#153 = VERTEX_POINT ( 'NONE', #233 ) ;
#154 = AXIS2_PLACEMENT_3D ( 'NONE', #34, #109, #59 ) ;
#155 = COORDINATED_UNIVERSAL_TIME_OFFSET ( 1, 0, .AHEAD. ) ;
#156 = DATE_TIME_ROLE ( 'classification_date' ) ;
#157 = DIRECTION ( 'NONE',  ( 1.000000000000000000, 0.0000000000000000000, 0.0000000000000000000 ) ) ;
#158 = PERSON_AND_ORGANIZATION ( #30, #105 ) ;
#159 = ORIENTED_EDGE ( 'NONE', *, *, #101, .T. ) ;
#160 = PRODUCT_DEFINITION_SHAPE ( 'NONE', 'NONE',  #222 ) ;
#161 = PRODUCT_DEFINITION_FORMATION_WITH_SPECIFIED_SOURCE ( 'ANY', '', #198, .NOT_KNOWN. ) ;
#162 = ORIENTED_EDGE ( 'NONE', *, *, #20, .T. ) ;
#163 = EDGE_LOOP ( 'NONE', ( #89 ) ) ;
#164 = DIRECTION ( 'NONE',  ( 4.275831445896958607E-31, 1.000000000000000000, 1.224646799147353207E-16 ) ) ;
#165 = ADVANCED_FACE ( 'NONE', ( #91 ), #167, .F. ) ;
#166 = DIRECTION ( 'NONE',  ( -4.333342374871280669E-31, -1.000000000000000000, -1.219727444046192488E-16 ) ) ;
#167 = PLANE ( 'NONE',  #243 ) ;
#168 = PERSON_AND_ORGANIZATION ( #30, #105 ) ;
#169 = ADVANCED_BREP_SHAPE_REPRESENTATION ( '31451', ( #5, #86, #9 ), #172 ) ;
#170 = DIRECTION ( 'NONE',  ( 3.491481338843133355E-15, -1.217917285207545432E-16, 1.000000000000000000 ) ) ;
#171 = EDGE_CURVE ( 'NONE', #153, #153, #180, .T. ) ;
#172 =( GEOMETRIC_REPRESENTATION_CONTEXT ( 3 ) GLOBAL_UNCERTAINTY_ASSIGNED_CONTEXT ( ( #120 ) ) GLOBAL_UNIT_ASSIGNED_CONTEXT ( ( #196, #102, #118 ) ) REPRESENTATION_CONTEXT ( 'NONE', 'WORKASPACE' ) );
#173 = LOCAL_TIME ( 10, 16, 4.000000000000000000, #119 ) ;
#174 = CARTESIAN_POINT ( 'NONE',  ( -6.413747168845438786E-31, 2.249639673992786412E-32, -1.836970198721029934E-16 ) ) ;
#175 = APPROVAL_ROLE ( '' ) ;
#176 = DATE_AND_TIME ( #237, #97 ) ;
#177 = CARTESIAN_POINT ( 'NONE',  ( 1.972686956446370283E-13, 2.999999999999992895, 56.49999999999999289 ) ) ;
#178 = CARTESIAN_POINT ( 'NONE',  ( 0.0000000000000000000, 0.0000000000000000000, 0.0000000000000000000 ) ) ;
#179 = CC_DESIGN_DATE_AND_TIME_ASSIGNMENT ( #117, #191, ( #222 ) ) ;
#180 = CIRCLE ( 'NONE', #154, 1.999999999999998224 ) ;
#181 = ORIENTED_EDGE ( 'NONE', *, *, #229, .F. ) ;
#182 = CC_DESIGN_APPROVAL ( #241, ( #43 ) ) ;
#183 = CARTESIAN_POINT ( 'NONE',  ( 3.491481338843132724E-14, 2.249639673992785317E-32, 9.999999999999998224 ) ) ;
#184 = ADVANCED_FACE ( 'NONE', ( #130 ), #96, .F. ) ;
#185 = DIRECTION ( 'NONE',  ( 1.000000000000000000, 0.0000000000000000000, -3.491481338843133355E-15 ) ) ;
#186 = DIRECTION ( 'NONE',  ( 0.0000000000000000000, 1.000000000000000000, 0.0000000000000000000 ) ) ;
#187 = DIRECTION ( 'NONE',  ( 0.0000000000000000000, 1.000000000000000000, 0.0000000000000000000 ) ) ;
#188 = PERSON_AND_ORGANIZATION_ROLE ( 'design_supplier' ) ;
#189 = DIRECTION ( 'NONE',  ( 4.275831445896959482E-31, 1.000000000000000000, 1.224646799147353207E-16 ) ) ;
#190 = CLOSED_SHELL ( 'NONE', ( #64, #60, #165, #85, #184 ) ) ;
#191 = DATE_TIME_ROLE ( 'creation_date' ) ;
#192 = CARTESIAN_POINT ( 'NONE',  ( -2.999999999999951594, 0.0000000000000000000, 13.87298334620742857 ) ) ;
#193 = PERSON_AND_ORGANIZATION_ROLE ( 'classification_officer' ) ;
#194 = PRODUCT_RELATED_PRODUCT_CATEGORY ( 'detail', '', ( #198 ) ) ;
#195 = CALENDAR_DATE ( 2021, 17, 11 ) ;
#196 =( LENGTH_UNIT ( ) NAMED_UNIT ( * ) SI_UNIT ( .MILLI., .METRE. ) );
#197 = CARTESIAN_POINT ( 'NONE',  ( -1.530840770480387704E-30, -1.799999999999999156, -4.384502226747160894E-16 ) ) ;
#198 = PRODUCT ( '31451', '31451', '', ( #8 ) ) ;
#199 = FACE_OUTER_BOUND ( 'NONE', #144, .T. ) ;
#200 = DIRECTION ( 'NONE',  ( -3.491481338843133355E-15, 1.224646799147353207E-16, -1.000000000000000000 ) ) ;
#201 = DIRECTION ( 'NONE',  ( 3.491481338843133355E-15, -1.224646799147353207E-16, 1.000000000000000000 ) ) ;
#202 = AXIS2_PLACEMENT_3D ( 'NONE', #224, #40, #189 ) ;
#203 = LOCAL_TIME ( 10, 16, 4.000000000000000000, #155 ) ;
#204 = FACE_OUTER_BOUND ( 'NONE', #71, .T. ) ;
#205 = DIRECTION ( 'NONE',  ( 3.491481338843133355E-15, -0.0000000000000000000, 1.000000000000000000 ) ) ;
#206 = FACE_OUTER_BOUND ( 'NONE', #16, .T. ) ;
#207 = APPROVAL_STATUS ( 'not_yet_approved' ) ;
#208 = CIRCLE ( 'NONE', #3, 1.999999999999998224 ) ;
#209 = VERTEX_POINT ( 'NONE', #197 ) ;
#210 = PERSON_AND_ORGANIZATION ( #30, #105 ) ;
#211 = EDGE_CURVE ( 'NONE', #63, #63, #107, .T. ) ;
#212 = DATE_AND_TIME ( #195, #173 ) ;
#213 = APPROVAL_STATUS ( 'not_yet_approved' ) ;
#214 = CIRCLE ( 'NONE', #62, 1.799999999999999156 ) ;
#215 = AXIS2_PLACEMENT_3D ( 'NONE', #227, #25, #110 ) ;
#216 = APPROVAL_ROLE ( '' ) ;
#217 = ORIENTED_EDGE ( 'NONE', *, *, #20, .F. ) ;
#218 = ORIENTED_EDGE ( 'NONE', *, *, #171, .F. ) ;
#219 = ORIENTED_EDGE ( 'NONE', *, *, #45, .F. ) ;
#220 = FACE_OUTER_BOUND ( 'NONE', #52, .T. ) ;
#221 = CLOSED_SHELL ( 'NONE', ( #17, #238, #150, #115 ) ) ;
#222 = PRODUCT_DEFINITION ( 'UNKNOWN', '', #161, #84 ) ;
#223 = FACE_OUTER_BOUND ( 'NONE', #145, .T. ) ;
#224 = CARTESIAN_POINT ( 'NONE',  ( 0.0000000000000000000, 0.0000000000000000000, 0.0000000000000000000 ) ) ;
#225 = FACE_BOUND ( 'NONE', #142, .T. ) ;
#226 = CARTESIAN_POINT ( 'NONE',  ( 1.990144363140586139E-13, -6.980486755139912911E-15, 57.00000000000000000 ) ) ;
#227 = CARTESIAN_POINT ( 'NONE',  ( 4.843726246736477116E-14, 0.0000000000000000000, 13.87298334620741969 ) ) ;
#228 = CALENDAR_DATE ( 2021, 17, 11 ) ;
#229 = EDGE_CURVE ( 'NONE', #121, #121, #208, .T. ) ;
#230 = DIRECTION ( 'NONE',  ( 0.0000000000000000000, 0.0000000000000000000, 1.000000000000000000 ) ) ;
#231 = SHAPE_DEFINITION_REPRESENTATION ( #160, #169 ) ;
#232 = CC_DESIGN_DATE_AND_TIME_ASSIGNMENT ( #176, #156, ( #43 ) ) ;
#233 = CARTESIAN_POINT ( 'NONE',  ( 2.000000000000033307, 0.0000000000000000000, 9.999999999999989342 ) ) ;
#234 = CONICAL_SURFACE ( 'NONE', #38, 2.999999999999999556, 0.7853981633974405074 ) ;
#235 = AXIS2_PLACEMENT_3D ( 'NONE', #147, #127, #187 ) ;
#236 = DATE_AND_TIME ( #104, #203 ) ;
#237 = CALENDAR_DATE ( 2021, 17, 11 ) ;
#238 = ADVANCED_FACE ( 'NONE', ( #204 ), #122, .T. ) ;
#239 = COORDINATED_UNIVERSAL_TIME_OFFSET ( 1, 0, .AHEAD. ) ;
#240 = ORIENTED_EDGE ( 'NONE', *, *, #229, .T. ) ;
#241 = APPROVAL ( #213, 'UNSPECIFIED' ) ;
#242 = ORIENTED_EDGE ( 'NONE', *, *, #131, .F. ) ;
#243 = AXIS2_PLACEMENT_3D ( 'NONE', #114, #200, #61 ) ;
ENDSEC;
END-ISO-10303-21;
