ISO-10303-21;
HEADER;
FILE_DESCRIPTION (( 'STEP AP203' ),
    '1' );
FILE_NAME ('31446.step',
    '2021-10-15T13:34:22',
    ( '' ),
    ( '' ),
    'SwSTEP 2.0',
    'SolidWorks 2019',
    '' );
FILE_SCHEMA (( 'CONFIG_CONTROL_DESIGN' ));
ENDSEC;

DATA;
#1 = CC_DESIGN_PERSON_AND_ORGANIZATION_ASSIGNMENT ( #105, #200, ( #115 ) ) ;
#2 = CARTESIAN_POINT ( 'NONE',  ( 1.047444401652940007E-13, 2.249639673992712857E-33, 30.00000000000000000 ) ) ;
#3 = CC_DESIGN_DATE_AND_TIME_ASSIGNMENT ( #149, #75, ( #198 ) ) ;
#4 = VERTEX_POINT ( 'NONE', #158 ) ;
#5 = DIRECTION ( 'NONE',  ( 4.275831445896958607E-31, 1.000000000000000000, 1.224646799147353207E-16 ) ) ;
#6 = LOCAL_TIME ( 15, 34, 22.00000000000000000, #131 ) ;
#7 = AXIS2_PLACEMENT_3D ( 'NONE', #112, #171, #157 ) ;
#8 = PLANE ( 'NONE',  #155 ) ;
#9 = CALENDAR_DATE ( 2021, 15, 10 ) ;
#10 =( GEOMETRIC_REPRESENTATION_CONTEXT ( 3 ) GLOBAL_UNCERTAINTY_ASSIGNED_CONTEXT ( ( #33 ) ) GLOBAL_UNIT_ASSIGNED_CONTEXT ( ( #38, #18, #116 ) ) REPRESENTATION_CONTEXT ( 'NONE', 'WORKASPACE' ) );
#11 = COORDINATED_UNIVERSAL_TIME_OFFSET ( 1, 0, .AHEAD. ) ;
#12 = SECURITY_CLASSIFICATION_LEVEL ( 'unclassified' ) ;
#13 = CLOSED_SHELL ( 'NONE', ( #15, #51, #121, #101 ) ) ;
#14 = EDGE_LOOP ( 'NONE', ( #170 ) ) ;
#15 = ADVANCED_FACE ( 'NONE', ( #80 ), #62, .F. ) ;
#16 = EDGE_LOOP ( 'NONE', ( #169 ) ) ;
#17 = FACE_OUTER_BOUND ( 'NONE', #16, .T. ) ;
#18 =( NAMED_UNIT ( * ) PLANE_ANGLE_UNIT ( ) SI_UNIT ( $, .RADIAN. ) );
#19 = APPROVAL_PERSON_ORGANIZATION ( #108, #189, #85 ) ;
#20 = CARTESIAN_POINT ( 'NONE',  ( 0.0000000000000000000, 0.0000000000000000000, 0.0000000000000000000 ) ) ;
#21 = VERTEX_POINT ( 'NONE', #163 ) ;
#22 = CC_DESIGN_PERSON_AND_ORGANIZATION_ASSIGNMENT ( #181, #106, ( #198 ) ) ;
#23 = DIRECTION ( 'NONE',  ( 0.0000000000000000000, 1.000000000000000000, 0.0000000000000000000 ) ) ;
#24 = CC_DESIGN_APPROVAL ( #76, ( #115 ) ) ;
#25 = AXIS2_PLACEMENT_3D ( 'NONE', #82, #26, #176 ) ;
#26 = DIRECTION ( 'NONE',  ( -3.491481338843133355E-15, 1.224646799147353207E-16, -1.000000000000000000 ) ) ;
#27 = PERSON_AND_ORGANIZATION ( #69, #93 ) ;
#28 = EDGE_CURVE ( 'NONE', #47, #47, #151, .T. ) ;
#29 = COORDINATED_UNIVERSAL_TIME_OFFSET ( 1, 0, .AHEAD. ) ;
#30 = PRODUCT_DEFINITION ( 'UNKNOWN', '', #115, #110 ) ;
#31 = DATE_AND_TIME ( #91, #107 ) ;
#32 = EDGE_LOOP ( 'NONE', ( #43 ) ) ;
#33 = UNCERTAINTY_MEASURE_WITH_UNIT (LENGTH_MEASURE( 1.000000000000000082E-05 ), #38, 'distance_accuracy_value', 'NONE');
#34 = ORIENTED_EDGE ( 'NONE', *, *, #168, .F. ) ;
#35 = AXIS2_PLACEMENT_3D ( 'NONE', #102, #193, #98 ) ;
#36 = DIRECTION ( 'NONE',  ( -3.491481338843133355E-15, 1.224646799147353207E-16, -1.000000000000000000 ) ) ;
#37 = CC_DESIGN_APPROVAL ( #196, ( #30 ) ) ;
#38 =( LENGTH_UNIT ( ) NAMED_UNIT ( * ) SI_UNIT ( .MILLI., .METRE. ) );
#39 = CARTESIAN_POINT ( 'NONE',  ( 6.353976404174048052E-16, -2.228674911895085618E-17, 0.1819851171331012540 ) ) ;
#40 = PERSON_AND_ORGANIZATION_ROLE ( 'creator' ) ;
#41 = APPROVAL_STATUS ( 'not_yet_approved' ) ;
#42 = PERSON_AND_ORGANIZATION_ROLE ( 'design_owner' ) ;
#43 = ORIENTED_EDGE ( 'NONE', *, *, #168, .T. ) ;
#44 = ORIENTED_EDGE ( 'NONE', *, *, #28, .T. ) ;
#45 = CC_DESIGN_SECURITY_CLASSIFICATION ( #198, ( #115 ) ) ;
#46 = AXIS2_PLACEMENT_3D ( 'NONE', #126, #68, #23 ) ;
#47 = VERTEX_POINT ( 'NONE', #103 ) ;
#48 = FACE_OUTER_BOUND ( 'NONE', #187, .T. ) ;
#49 = DIRECTION ( 'NONE',  ( -3.491481338843133355E-15, 1.224646799147353207E-16, -1.000000000000000000 ) ) ;
#50 = APPROVAL_PERSON_ORGANIZATION ( #129, #196, #165 ) ;
#51 = ADVANCED_FACE ( 'NONE', ( #17, #173 ), #71, .T. ) ;
#52 = DIRECTION ( 'NONE',  ( 3.851859888774519876E-31, 1.000000000000000000, 1.084202172485517993E-16 ) ) ;
#53 = FACE_OUTER_BOUND ( 'NONE', #109, .T. ) ;
#54 = EDGE_CURVE ( 'NONE', #114, #114, #156, .T. ) ;
#55 = APPROVAL_STATUS ( 'not_yet_approved' ) ;
#56 = LOCAL_TIME ( 15, 34, 22.00000000000000000, #147 ) ;
#57 = CC_DESIGN_PERSON_AND_ORGANIZATION_ASSIGNMENT ( #120, #180, ( #115 ) ) ;
#58 = AXIS2_PLACEMENT_3D ( 'NONE', #178, #36, #84 ) ;
#59 = APPLICATION_CONTEXT ( 'configuration controlled 3d designs of mechanical parts and assemblies' ) ;
#60 = CC_DESIGN_PERSON_AND_ORGANIZATION_ASSIGNMENT ( #130, #40, ( #30 ) ) ;
#61 = ORIENTED_EDGE ( 'NONE', *, *, #54, .T. ) ;
#62 = PLANE ( 'NONE',  #125 ) ;
#63 = EDGE_LOOP ( 'NONE', ( #111 ) ) ;
#64 = DIRECTION ( 'NONE',  ( -3.491481338843133355E-15, 1.224646799147353207E-16, -1.000000000000000000 ) ) ;
#65 = CARTESIAN_POINT ( 'NONE',  ( 1.047444401652940007E-13, -3.673940397442059178E-15, 30.00000000000000000 ) ) ;
#66 = CALENDAR_DATE ( 2021, 15, 10 ) ;
#67 = APPROVAL_DATE_TIME ( #99, #189 ) ;
#68 = DIRECTION ( 'NONE',  ( -3.491481338843133355E-15, 1.224646799147353207E-16, -1.000000000000000000 ) ) ;
#69 = PERSON ( 'UNSPECIFIED', 'UNSPECIFIED', 'UNSPECIFIED', ('UNSPECIFIED'), ('UNSPECIFIED'), ('UNSPECIFIED') ) ;
#70 = CC_DESIGN_APPROVAL ( #189, ( #198 ) ) ;
#71 = CYLINDRICAL_SURFACE ( 'NONE', #58, 0.4999999999999961142 ) ;
#72 = CARTESIAN_POINT ( 'NONE',  ( 0.0000000000000000000, 0.0000000000000000000, 0.0000000000000000000 ) ) ;
#73 = MANIFOLD_SOLID_BREP ( 'Corps-Déplacer/Copier1[2]', #143 ) ;
#74 = DATE_AND_TIME ( #9, #56 ) ;
#75 = DATE_TIME_ROLE ( 'classification_date' ) ;
#76 = APPROVAL ( #41, 'UNSPECIFIED' ) ;
#77 = AXIS2_PLACEMENT_3D ( 'NONE', #20, #64, #5 ) ;
#78 = CC_DESIGN_DATE_AND_TIME_ASSIGNMENT ( #119, #90, ( #30 ) ) ;
#79 = ORIENTED_EDGE ( 'NONE', *, *, #185, .F. ) ;
#80 = FACE_OUTER_BOUND ( 'NONE', #81, .T. ) ;
#81 = EDGE_LOOP ( 'NONE', ( #44 ) ) ;
#82 = CARTESIAN_POINT ( 'NONE',  ( 2.793185071074506684E-14, -9.797174393178825657E-16, 8.000000000000000000 ) ) ;
#83 = CARTESIAN_POINT ( 'NONE',  ( 6.353976404174048052E-16, -2.228674911895085618E-17, 0.1819851171331012540 ) ) ;
#84 = DIRECTION ( 'NONE',  ( 4.275831445896958607E-31, 1.000000000000000000, 1.224646799147353454E-16 ) ) ;
#85 = APPROVAL_ROLE ( '' ) ;
#86 = DIRECTION ( 'NONE',  ( 0.0000000000000000000, 1.000000000000000000, 0.0000000000000000000 ) ) ;
#87 = LOCAL_TIME ( 15, 34, 22.00000000000000000, #175 ) ;
#88 = CYLINDRICAL_SURFACE ( 'NONE', #77, 0.4999999999999941713 ) ;
#89 = PERSON_AND_ORGANIZATION ( #69, #93 ) ;
#90 = DATE_TIME_ROLE ( 'creation_date' ) ;
#91 = CALENDAR_DATE ( 2021, 15, 10 ) ;
#92 = DIRECTION ( 'NONE',  ( 1.000000000000000000, 0.0000000000000000000, 0.0000000000000000000 ) ) ;
#93 = ORGANIZATION ( 'UNSPECIFIED', 'UNSPECIFIED', '' ) ;
#94 = EDGE_CURVE ( 'NONE', #4, #4, #95, .T. ) ;
#95 = CIRCLE ( 'NONE', #35, 0.4999999999999973910 ) ;
#96 = ORIENTED_EDGE ( 'NONE', *, *, #94, .F. ) ;
#97 = FACE_OUTER_BOUND ( 'NONE', #124, .T. ) ;
#98 = DIRECTION ( 'NONE',  ( 0.0000000000000000000, 1.000000000000000000, 0.0000000000000000000 ) ) ;
#99 = DATE_AND_TIME ( #66, #87 ) ;
#100 = CARTESIAN_POINT ( 'NONE',  ( 2.793185071074506684E-14, 3.749399456654588597E-33, 8.000000000000000000 ) ) ;
#101 = ADVANCED_FACE ( 'NONE', ( #48 ), #128, .F. ) ;
#102 = CARTESIAN_POINT ( 'NONE',  ( 1.040461438975253614E-13, -3.649447461459111675E-15, 29.79999999999999716 ) ) ;
#103 = CARTESIAN_POINT ( 'NONE',  ( 2.793185071074506684E-14, 0.4999999999999937272, 8.000000000000000000 ) ) ;
#104 = APPLICATION_CONTEXT ( 'configuration controlled 3d designs of mechanical parts and assemblies' ) ;
#105 = PERSON_AND_ORGANIZATION ( #69, #93 ) ;
#106 = PERSON_AND_ORGANIZATION_ROLE ( 'classification_officer' ) ;
#107 = LOCAL_TIME ( 15, 34, 22.00000000000000000, #29 ) ;
#108 = PERSON_AND_ORGANIZATION ( #69, #93 ) ;
#109 = EDGE_LOOP ( 'NONE', ( #61 ) ) ;
#110 = DESIGN_CONTEXT ( 'detailed design', #104, 'design' ) ;
#111 = ORIENTED_EDGE ( 'NONE', *, *, #54, .F. ) ;
#112 = CARTESIAN_POINT ( 'NONE',  ( 2.793185071074506684E-14, -9.797174393178825657E-16, 8.000000000000000000 ) ) ;
#113 = CARTESIAN_POINT ( 'NONE',  ( 1.047444401652940007E-13, 0.2999999999999938272, 30.00000000000000000 ) ) ;
#114 = VERTEX_POINT ( 'NONE', #174 ) ;
#115 = PRODUCT_DEFINITION_FORMATION_WITH_SPECIFIED_SOURCE ( 'ANY', '', #152, .NOT_KNOWN. ) ;
#116 =( NAMED_UNIT ( * ) SI_UNIT ( $, .STERADIAN. ) SOLID_ANGLE_UNIT ( ) );
#117 = FACE_OUTER_BOUND ( 'NONE', #14, .T. ) ;
#118 = CALENDAR_DATE ( 2021, 15, 10 ) ;
#119 = DATE_AND_TIME ( #118, #148 ) ;
#120 = PERSON_AND_ORGANIZATION ( #69, #93 ) ;
#121 = ADVANCED_FACE ( 'NONE', ( #161, #195 ), #134, .T. ) ;
#122 = PRODUCT_DEFINITION_SHAPE ( 'NONE', 'NONE',  #30 ) ;
#123 = CARTESIAN_POINT ( 'NONE',  ( 2.793185071074506684E-14, 3.749399456654588597E-33, 8.000000000000000000 ) ) ;
#124 = EDGE_LOOP ( 'NONE', ( #79 ) ) ;
#125 = AXIS2_PLACEMENT_3D ( 'NONE', #123, #154, #137 ) ;
#126 = CARTESIAN_POINT ( 'NONE',  ( 1.047444401652940007E-13, -3.673940397442059178E-15, 30.00000000000000000 ) ) ;
#127 = DIRECTION ( 'NONE',  ( -3.491481338843133355E-15, 1.224646799147353207E-16, -1.000000000000000000 ) ) ;
#128 = PLANE ( 'NONE',  #172 ) ;
#129 = PERSON_AND_ORGANIZATION ( #69, #93 ) ;
#130 = PERSON_AND_ORGANIZATION ( #69, #93 ) ;
#131 = COORDINATED_UNIVERSAL_TIME_OFFSET ( 1, 0, .AHEAD. ) ;
#132 = APPROVAL_DATE_TIME ( #74, #76 ) ;
#133 = AXIS2_PLACEMENT_3D ( 'NONE', #72, #199, #92 ) ;
#134 = CONICAL_SURFACE ( 'NONE', #46, 0.2999999999999975464, 0.7853981633974423948 ) ;
#135 = MANIFOLD_SOLID_BREP ( 'Corps-Déplacer/Copier1[1]', #13 ) ;
#136 = EDGE_LOOP ( 'NONE', ( #96 ) ) ;
#137 = DIRECTION ( 'NONE',  ( -4.275831445896958607E-31, -1.000000000000000000, -1.224646799147353207E-16 ) ) ;
#138 = ORIENTED_EDGE ( 'NONE', *, *, #94, .T. ) ;
#139 = CONICAL_SURFACE ( 'NONE', #194, 0.4999999999999937272, 1.221730476396026610 ) ;
#140 = DIRECTION ( 'NONE',  ( -4.275831445896958607E-31, -1.000000000000000000, -1.224646799147353207E-16 ) ) ;
#141 = DIRECTION ( 'NONE',  ( 3.491481338843133355E-15, -1.224646799147353207E-16, 1.000000000000000000 ) ) ;
#142 = FACE_OUTER_BOUND ( 'NONE', #63, .T. ) ;
#143 = CLOSED_SHELL ( 'NONE', ( #182, #153, #177 ) ) ;
#144 = APPLICATION_PROTOCOL_DEFINITION ( 'international standard', 'config_control_design', 1994, #104 ) ;
#145 = CC_DESIGN_PERSON_AND_ORGANIZATION_ASSIGNMENT ( #89, #42, ( #152 ) ) ;
#146 = APPROVAL_DATE_TIME ( #31, #196 ) ;
#147 = COORDINATED_UNIVERSAL_TIME_OFFSET ( 1, 0, .AHEAD. ) ;
#148 = LOCAL_TIME ( 15, 34, 22.00000000000000000, #11 ) ;
#149 = DATE_AND_TIME ( #167, #6 ) ;
#150 = PRODUCT_RELATED_PRODUCT_CATEGORY ( 'detail', '', ( #152 ) ) ;
#151 = CIRCLE ( 'NONE', #7, 0.4999999999999946709 ) ;
#152 = PRODUCT ( '31446', '31446', '', ( #166 ) ) ;
#153 = ADVANCED_FACE ( 'NONE', ( #97, #53 ), #88, .T. ) ;
#154 = DIRECTION ( 'NONE',  ( 3.491481338843133355E-15, -1.224646799147353207E-16, 1.000000000000000000 ) ) ;
#155 = AXIS2_PLACEMENT_3D ( 'NONE', #100, #197, #140 ) ;
#156 = CIRCLE ( 'NONE', #25, 0.4999999999999946709 ) ;
#157 = DIRECTION ( 'NONE',  ( 0.0000000000000000000, 1.000000000000000000, 0.0000000000000000000 ) ) ;
#158 = CARTESIAN_POINT ( 'NONE',  ( 1.040461438975253614E-13, 0.4999999999999937272, 29.79999999999999716 ) ) ;
#159 = DIRECTION ( 'NONE',  ( 4.275831445896958607E-31, 1.000000000000000000, 1.224646799147353207E-16 ) ) ;
#160 = DIRECTION ( 'NONE',  ( -3.851859888774519876E-31, -1.000000000000000000, -1.084202172485517993E-16 ) ) ;
#161 = FACE_OUTER_BOUND ( 'NONE', #136, .T. ) ;
#162 = APPROVAL_PERSON_ORGANIZATION ( #27, #76, #179 ) ;
#163 = CARTESIAN_POINT ( 'NONE',  ( 6.353976404174050025E-16, 0.4999999999999937272, 0.1819851171331013096 ) ) ;
#164 = CIRCLE ( 'NONE', #184, 0.2999999999999975464 ) ;
#165 = APPROVAL_ROLE ( '' ) ;
#166 = MECHANICAL_CONTEXT ( 'NONE', #59, 'mechanical' ) ;
#167 = CALENDAR_DATE ( 2021, 15, 10 ) ;
#168 = EDGE_CURVE ( 'NONE', #190, #190, #164, .T. ) ;
#169 = ORIENTED_EDGE ( 'NONE', *, *, #28, .F. ) ;
#170 = ORIENTED_EDGE ( 'NONE', *, *, #185, .T. ) ;
#171 = DIRECTION ( 'NONE',  ( -3.491481338843133355E-15, 1.224646799147353207E-16, -1.000000000000000000 ) ) ;
#172 = AXIS2_PLACEMENT_3D ( 'NONE', #2, #49, #159 ) ;
#173 = FACE_OUTER_BOUND ( 'NONE', #203, .T. ) ;
#174 = CARTESIAN_POINT ( 'NONE',  ( 2.793185071074506684E-14, 0.4999999999999937272, 8.000000000000000000 ) ) ;
#175 = COORDINATED_UNIVERSAL_TIME_OFFSET ( 1, 0, .AHEAD. ) ;
#176 = DIRECTION ( 'NONE',  ( 0.0000000000000000000, 1.000000000000000000, 0.0000000000000000000 ) ) ;
#177 = ADVANCED_FACE ( 'NONE', ( #142 ), #8, .T. ) ;
#178 = CARTESIAN_POINT ( 'NONE',  ( 0.0000000000000000000, 0.0000000000000000000, 0.0000000000000000000 ) ) ;
#179 = APPROVAL_ROLE ( '' ) ;
#180 = PERSON_AND_ORGANIZATION_ROLE ( 'design_supplier' ) ;
#181 = PERSON_AND_ORGANIZATION ( #69, #93 ) ;
#182 = ADVANCED_FACE ( 'NONE', ( #117 ), #139, .T. ) ;
#183 = APPLICATION_PROTOCOL_DEFINITION ( 'international standard', 'config_control_design', 1994, #59 ) ;
#184 = AXIS2_PLACEMENT_3D ( 'NONE', #65, #127, #86 ) ;
#185 = EDGE_CURVE ( 'NONE', #21, #21, #186, .T. ) ;
#186 = CIRCLE ( 'NONE', #202, 0.4999999999999937272 ) ;
#187 = EDGE_LOOP ( 'NONE', ( #34 ) ) ;
#188 = ADVANCED_BREP_SHAPE_REPRESENTATION ( '31446', ( #135, #73, #133 ), #10 ) ;
#189 = APPROVAL ( #201, 'UNSPECIFIED' ) ;
#190 = VERTEX_POINT ( 'NONE', #113 ) ;
#191 = SHAPE_DEFINITION_REPRESENTATION ( #122, #188 ) ;
#192 = DIRECTION ( 'NONE',  ( -3.491481338843133355E-15, 1.224646799147353207E-16, -1.000000000000000000 ) ) ;
#193 = DIRECTION ( 'NONE',  ( -3.491481338843133355E-15, 1.224646799147353207E-16, -1.000000000000000000 ) ) ;
#194 = AXIS2_PLACEMENT_3D ( 'NONE', #83, #141, #160 ) ;
#195 = FACE_BOUND ( 'NONE', #32, .T. ) ;
#196 = APPROVAL ( #55, 'UNSPECIFIED' ) ;
#197 = DIRECTION ( 'NONE',  ( 3.491481338843133355E-15, -1.224646799147353207E-16, 1.000000000000000000 ) ) ;
#198 = SECURITY_CLASSIFICATION ( '', '', #12 ) ;
#199 = DIRECTION ( 'NONE',  ( 0.0000000000000000000, 0.0000000000000000000, 1.000000000000000000 ) ) ;
#200 = PERSON_AND_ORGANIZATION_ROLE ( 'creator' ) ;
#201 = APPROVAL_STATUS ( 'not_yet_approved' ) ;
#202 = AXIS2_PLACEMENT_3D ( 'NONE', #39, #192, #52 ) ;
#203 = EDGE_LOOP ( 'NONE', ( #138 ) ) ;
ENDSEC;
END-ISO-10303-21;
