ISO-10303-21;
HEADER;
FILE_DESCRIPTION (( 'STEP AP203' ),
    '1' );
FILE_NAME ('31297.step',
    '2021-10-15T13:34:22',
    ( '' ),
    ( '' ),
    'SwSTEP 2.0',
    'SolidWorks 2019',
    '' );
FILE_SCHEMA (( 'CONFIG_CONTROL_DESIGN' ));
ENDSEC;

DATA;
#1 = AXIS2_PLACEMENT_3D ( 'NONE', #164, #145, #83 ) ;
#2 = CARTESIAN_POINT ( 'NONE',  ( 1.801604370843056559E-13, 1.799999999999994271, 51.59999999999999432 ) ) ;
#3 = ADVANCED_FACE ( 'NONE', ( #135 ), #199, .T. ) ;
#4 = VERTEX_POINT ( 'NONE', #17 ) ;
#5 = CC_DESIGN_PERSON_AND_ORGANIZATION_ASSIGNMENT ( #185, #132, ( #80 ) ) ;
#6 = PERSON_AND_ORGANIZATION ( #88, #118 ) ;
#7 = AXIS2_PLACEMENT_3D ( 'NONE', #79, #108, #37 ) ;
#8 = PERSON_AND_ORGANIZATION ( #88, #118 ) ;
#9 = CALENDAR_DATE ( 2021, 15, 10 ) ;
#10 = ADVANCED_FACE ( 'NONE', ( #119 ), #46, .F. ) ;
#11 = APPROVAL_DATE_TIME ( #151, #159 ) ;
#12 = CC_DESIGN_PERSON_AND_ORGANIZATION_ASSIGNMENT ( #184, #100, ( #123 ) ) ;
#13 = EDGE_LOOP ( 'NONE', ( #202 ) ) ;
#14 = DIRECTION ( 'NONE',  ( 4.275831445896959482E-31, 1.000000000000000000, 1.224646799147353454E-16 ) ) ;
#15 =( GEOMETRIC_REPRESENTATION_CONTEXT ( 3 ) GLOBAL_UNCERTAINTY_ASSIGNED_CONTEXT ( ( #187 ) ) GLOBAL_UNIT_ASSIGNED_CONTEXT ( ( #128, #195, #162 ) ) REPRESENTATION_CONTEXT ( 'NONE', 'WORKASPACE' ) );
#16 = EDGE_LOOP ( 'NONE', ( #49 ) ) ;
#17 = CARTESIAN_POINT ( 'NONE',  ( 6.982962677686266711E-14, 1.799999999999994271, 20.00000000000000000 ) ) ;
#18 = DIRECTION ( 'NONE',  ( -3.491481338843133355E-15, 1.224646799147353454E-16, -1.000000000000000000 ) ) ;
#19 = CARTESIAN_POINT ( 'NONE',  ( 6.982962677686266711E-14, 1.799999999999994271, 20.00000000000000000 ) ) ;
#20 = LOCAL_TIME ( 15, 34, 22.00000000000000000, #101 ) ;
#21 = APPLICATION_PROTOCOL_DEFINITION ( 'international standard', 'config_control_design', 1994, #194 ) ;
#22 = CC_DESIGN_PERSON_AND_ORGANIZATION_ASSIGNMENT ( #86, #115, ( #193 ) ) ;
#23 = CARTESIAN_POINT ( 'NONE',  ( 1.801604370843056559E-13, -6.319177483600343742E-15, 51.59999999999999432 ) ) ;
#24 = DATE_TIME_ROLE ( 'creation_date' ) ;
#25 = MECHANICAL_CONTEXT ( 'NONE', #194, 'mechanical' ) ;
#26 = COORDINATED_UNIVERSAL_TIME_OFFSET ( 1, 0, .AHEAD. ) ;
#27 = DATE_AND_TIME ( #69, #142 ) ;
#28 = APPROVAL_PERSON_ORGANIZATION ( #8, #159, #131 ) ;
#29 = APPROVAL ( #90, 'UNSPECIFIED' ) ;
#30 = EDGE_LOOP ( 'NONE', ( #138 ) ) ;
#31 = DIRECTION ( 'NONE',  ( -4.275831445896959482E-31, -1.000000000000000000, -1.224646799147353454E-16 ) ) ;
#32 = AXIS2_PLACEMENT_3D ( 'NONE', #94, #149, #70 ) ;
#33 = EDGE_LOOP ( 'NONE', ( #45 ) ) ;
#34 = AXIS2_PLACEMENT_3D ( 'NONE', #104, #170, #14 ) ;
#35 = VERTEX_POINT ( 'NONE', #179 ) ;
#36 = FACE_OUTER_BOUND ( 'NONE', #154, .T. ) ;
#37 = DIRECTION ( 'NONE',  ( 0.0000000000000000000, 1.000000000000000000, 0.0000000000000000000 ) ) ;
#38 = AXIS2_PLACEMENT_3D ( 'NONE', #109, #51, #161 ) ;
#39 = APPROVAL_ROLE ( '' ) ;
#40 = AXIS2_PLACEMENT_3D ( 'NONE', #155, #61, #31 ) ;
#41 = PERSON_AND_ORGANIZATION ( #88, #118 ) ;
#42 = ADVANCED_FACE ( 'NONE', ( #191, #47 ), #44, .T. ) ;
#43 = CIRCLE ( 'NONE', #99, 1.799999999999996714 ) ;
#44 = CONICAL_SURFACE ( 'NONE', #186, 1.400000000000000799, 0.7853981633974423948 ) ;
#45 = ORIENTED_EDGE ( 'NONE', *, *, #158, .F. ) ;
#46 = PLANE ( 'NONE',  #34 ) ;
#47 = FACE_BOUND ( 'NONE', #157, .T. ) ;
#48 = CARTESIAN_POINT ( 'NONE',  ( 2.287431505502679426E-15, -8.023229682822388098E-17, 0.6551464216791708095 ) ) ;
#49 = ORIENTED_EDGE ( 'NONE', *, *, #181, .T. ) ;
#50 = MANIFOLD_SOLID_BREP ( 'Corps-Déplacer/Copier1[2]', #92 ) ;
#51 = DIRECTION ( 'NONE',  ( 3.491481338843133355E-15, -1.224646799147353454E-16, 1.000000000000000000 ) ) ;
#52 = AXIS2_PLACEMENT_3D ( 'NONE', #163, #192, #82 ) ;
#53 = MANIFOLD_SOLID_BREP ( 'Corps-Déplacer/Copier1[1]', #65 ) ;
#54 = DIRECTION ( 'NONE',  ( -4.279844320860538034E-31, -1.000000000000000000, -1.204669080539453288E-16 ) ) ;
#55 = PRODUCT_DEFINITION_FORMATION_WITH_SPECIFIED_SOURCE ( 'ANY', '', #193, .NOT_KNOWN. ) ;
#56 = PERSON_AND_ORGANIZATION_ROLE ( 'creator' ) ;
#57 = CALENDAR_DATE ( 2021, 15, 10 ) ;
#58 = APPROVAL_DATE_TIME ( #27, #29 ) ;
#59 = EDGE_CURVE ( 'NONE', #127, #127, #43, .T. ) ;
#60 = APPROVAL_PERSON_ORGANIZATION ( #41, #174, #98 ) ;
#61 = DIRECTION ( 'NONE',  ( 3.491481338843133355E-15, -1.224646799147353454E-16, 1.000000000000000000 ) ) ;
#62 = EDGE_LOOP ( 'NONE', ( #107 ) ) ;
#63 = DIRECTION ( 'NONE',  ( -3.491481338843133355E-15, 1.224646799147353454E-16, -1.000000000000000000 ) ) ;
#64 = VERTEX_POINT ( 'NONE', #141 ) ;
#65 = CLOSED_SHELL ( 'NONE', ( #95, #103, #42, #10 ) ) ;
#66 = VERTEX_POINT ( 'NONE', #2 ) ;
#67 = FACE_OUTER_BOUND ( 'NONE', #62, .T. ) ;
#68 = DATE_AND_TIME ( #9, #20 ) ;
#69 = CALENDAR_DATE ( 2021, 15, 10 ) ;
#70 = DIRECTION ( 'NONE',  ( 1.000000000000000000, 0.0000000000000000000, 0.0000000000000000000 ) ) ;
#71 = EDGE_CURVE ( 'NONE', #35, #35, #81, .T. ) ;
#72 = DESIGN_CONTEXT ( 'detailed design', #150, 'design' ) ;
#73 = CIRCLE ( 'NONE', #7, 1.799999999999996714 ) ;
#74 = ORIENTED_EDGE ( 'NONE', *, *, #158, .T. ) ;
#75 = CARTESIAN_POINT ( 'NONE',  ( 1.815570296198429345E-13, -6.368163355566237959E-15, 52.00000000000000000 ) ) ;
#76 = CARTESIAN_POINT ( 'NONE',  ( 6.982962677686266711E-14, -2.449293598294706907E-15, 20.00000000000000000 ) ) ;
#77 = CC_DESIGN_SECURITY_CLASSIFICATION ( #123, ( #55 ) ) ;
#78 = DIRECTION ( 'NONE',  ( 4.279844320860538034E-31, 1.000000000000000000, 1.204669080539453288E-16 ) ) ;
#79 = CARTESIAN_POINT ( 'NONE',  ( 6.982962677686266711E-14, -2.449293598294706907E-15, 20.00000000000000000 ) ) ;
#80 = PRODUCT_DEFINITION ( 'UNKNOWN', '', #55, #72 ) ;
#81 = CIRCLE ( 'NONE', #133, 1.799999999999994271 ) ;
#82 = DIRECTION ( 'NONE',  ( 4.275831445896959482E-31, 1.000000000000000000, 1.224646799147353454E-16 ) ) ;
#83 = DIRECTION ( 'NONE',  ( 0.0000000000000000000, 1.000000000000000000, 0.0000000000000000000 ) ) ;
#84 = PRODUCT_RELATED_PRODUCT_CATEGORY ( 'detail', '', ( #193 ) ) ;
#85 = APPROVAL_STATUS ( 'not_yet_approved' ) ;
#86 = PERSON_AND_ORGANIZATION ( #88, #118 ) ;
#87 = APPLICATION_PROTOCOL_DEFINITION ( 'international standard', 'config_control_design', 1994, #150 ) ;
#88 = PERSON ( 'UNSPECIFIED', 'UNSPECIFIED', 'UNSPECIFIED', ('UNSPECIFIED'), ('UNSPECIFIED'), ('UNSPECIFIED') ) ;
#89 = AXIS2_PLACEMENT_3D ( 'NONE', #23, #63, #125 ) ;
#90 = APPROVAL_STATUS ( 'not_yet_approved' ) ;
#91 = EDGE_LOOP ( 'NONE', ( #74 ) ) ;
#92 = CLOSED_SHELL ( 'NONE', ( #111, #146, #3 ) ) ;
#93 = ORIENTED_EDGE ( 'NONE', *, *, #126, .F. ) ;
#94 = CARTESIAN_POINT ( 'NONE',  ( 0.0000000000000000000, 0.0000000000000000000, 0.0000000000000000000 ) ) ;
#95 = ADVANCED_FACE ( 'NONE', ( #178 ), #112, .F. ) ;
#96 = CC_DESIGN_APPROVAL ( #29, ( #80 ) ) ;
#97 = COORDINATED_UNIVERSAL_TIME_OFFSET ( 1, 0, .AHEAD. ) ;
#98 = APPROVAL_ROLE ( '' ) ;
#99 = AXIS2_PLACEMENT_3D ( 'NONE', #76, #136, #200 ) ;
#100 = PERSON_AND_ORGANIZATION_ROLE ( 'classification_officer' ) ;
#101 = COORDINATED_UNIVERSAL_TIME_OFFSET ( 1, 0, .AHEAD. ) ;
#102 = ORIENTED_EDGE ( 'NONE', *, *, #126, .T. ) ;
#103 = ADVANCED_FACE ( 'NONE', ( #67, #139 ), #177, .T. ) ;
#104 = CARTESIAN_POINT ( 'NONE',  ( 1.815570296198429345E-13, 1.049831847863292115E-32, 52.00000000000000000 ) ) ;
#105 = DIRECTION ( 'NONE',  ( -3.491481338843133355E-15, 1.224646799147353454E-16, -1.000000000000000000 ) ) ;
#106 = CC_DESIGN_APPROVAL ( #174, ( #55 ) ) ;
#107 = ORIENTED_EDGE ( 'NONE', *, *, #59, .F. ) ;
#108 = DIRECTION ( 'NONE',  ( -3.491481338843133355E-15, 1.224646799147353454E-16, -1.000000000000000000 ) ) ;
#109 = CARTESIAN_POINT ( 'NONE',  ( 6.982962677686266711E-14, 1.349783804395666373E-32, 20.00000000000000000 ) ) ;
#110 = CARTESIAN_POINT ( 'NONE',  ( 2.287431505502679426E-15, -8.023229682822388098E-17, 0.6551464216791708095 ) ) ;
#111 = ADVANCED_FACE ( 'NONE', ( #36 ), #156, .T. ) ;
#112 = PLANE ( 'NONE',  #38 ) ;
#113 = LOCAL_TIME ( 15, 34, 22.00000000000000000, #97 ) ;
#114 = COORDINATED_UNIVERSAL_TIME_OFFSET ( 1, 0, .AHEAD. ) ;
#115 = PERSON_AND_ORGANIZATION_ROLE ( 'design_owner' ) ;
#116 = CIRCLE ( 'NONE', #89, 1.800000000000000711 ) ;
#117 = DATE_AND_TIME ( #168, #172 ) ;
#118 = ORGANIZATION ( 'UNSPECIFIED', 'UNSPECIFIED', '' ) ;
#119 = FACE_OUTER_BOUND ( 'NONE', #173, .T. ) ;
#120 = ORIENTED_EDGE ( 'NONE', *, *, #59, .T. ) ;
#121 = EDGE_LOOP ( 'NONE', ( #120 ) ) ;
#122 = CC_DESIGN_DATE_AND_TIME_ASSIGNMENT ( #182, #24, ( #80 ) ) ;
#123 = SECURITY_CLASSIFICATION ( '', '', #130 ) ;
#124 = FACE_OUTER_BOUND ( 'NONE', #30, .T. ) ;
#125 = DIRECTION ( 'NONE',  ( 0.0000000000000000000, 1.000000000000000000, 0.0000000000000000000 ) ) ;
#126 = EDGE_CURVE ( 'NONE', #64, #64, #198, .T. ) ;
#127 = VERTEX_POINT ( 'NONE', #19 ) ;
#128 =( LENGTH_UNIT ( ) NAMED_UNIT ( * ) SI_UNIT ( .MILLI., .METRE. ) );
#129 = CYLINDRICAL_SURFACE ( 'NONE', #52, 1.799999999999995604 ) ;
#130 = SECURITY_CLASSIFICATION_LEVEL ( 'unclassified' ) ;
#131 = APPROVAL_ROLE ( '' ) ;
#132 = PERSON_AND_ORGANIZATION_ROLE ( 'creator' ) ;
#133 = AXIS2_PLACEMENT_3D ( 'NONE', #48, #18, #78 ) ;
#134 = PERSON_AND_ORGANIZATION ( #88, #118 ) ;
#135 = FACE_OUTER_BOUND ( 'NONE', #33, .T. ) ;
#136 = DIRECTION ( 'NONE',  ( -3.491481338843133355E-15, 1.224646799147353454E-16, -1.000000000000000000 ) ) ;
#137 = LOCAL_TIME ( 15, 34, 22.00000000000000000, #197 ) ;
#138 = ORIENTED_EDGE ( 'NONE', *, *, #71, .F. ) ;
#139 = FACE_OUTER_BOUND ( 'NONE', #16, .T. ) ;
#140 = DIRECTION ( 'NONE',  ( 3.491481338843133355E-15, -1.224646799147353454E-16, 1.000000000000000000 ) ) ;
#141 = CARTESIAN_POINT ( 'NONE',  ( 1.815570296198429345E-13, 1.399999999999994582, 52.00000000000000000 ) ) ;
#142 = LOCAL_TIME ( 15, 34, 22.00000000000000000, #114 ) ;
#143 = CC_DESIGN_PERSON_AND_ORGANIZATION_ASSIGNMENT ( #148, #56, ( #55 ) ) ;
#144 = DIRECTION ( 'NONE',  ( 4.275831445896959482E-31, 1.000000000000000000, 1.224646799147353454E-16 ) ) ;
#145 = DIRECTION ( 'NONE',  ( -3.491481338843133355E-15, 1.224646799147353454E-16, -1.000000000000000000 ) ) ;
#146 = ADVANCED_FACE ( 'NONE', ( #124, #203 ), #129, .T. ) ;
#147 = PERSON_AND_ORGANIZATION_ROLE ( 'design_supplier' ) ;
#148 = PERSON_AND_ORGANIZATION ( #88, #118 ) ;
#149 = DIRECTION ( 'NONE',  ( 0.0000000000000000000, 0.0000000000000000000, 1.000000000000000000 ) ) ;
#150 = APPLICATION_CONTEXT ( 'configuration controlled 3d designs of mechanical parts and assemblies' ) ;
#151 = DATE_AND_TIME ( #57, #137 ) ;
#152 = AXIS2_PLACEMENT_3D ( 'NONE', #176, #180, #144 ) ;
#153 = CC_DESIGN_PERSON_AND_ORGANIZATION_ASSIGNMENT ( #134, #147, ( #55 ) ) ;
#154 = EDGE_LOOP ( 'NONE', ( #190 ) ) ;
#155 = CARTESIAN_POINT ( 'NONE',  ( 6.982962677686266711E-14, 1.349783804395666373E-32, 20.00000000000000000 ) ) ;
#156 = CONICAL_SURFACE ( 'NONE', #160, 1.799999999999994271, 1.221730476396026388 ) ;
#157 = EDGE_LOOP ( 'NONE', ( #102 ) ) ;
#158 = EDGE_CURVE ( 'NONE', #4, #4, #73, .T. ) ;
#159 = APPROVAL ( #167, 'UNSPECIFIED' ) ;
#160 = AXIS2_PLACEMENT_3D ( 'NONE', #110, #140, #54 ) ;
#161 = DIRECTION ( 'NONE',  ( -4.275831445896959482E-31, -1.000000000000000000, -1.224646799147353454E-16 ) ) ;
#162 =( NAMED_UNIT ( * ) SI_UNIT ( $, .STERADIAN. ) SOLID_ANGLE_UNIT ( ) );
#163 = CARTESIAN_POINT ( 'NONE',  ( 0.0000000000000000000, 0.0000000000000000000, 0.0000000000000000000 ) ) ;
#164 = CARTESIAN_POINT ( 'NONE',  ( 1.815570296198429345E-13, -6.368163355566237959E-15, 52.00000000000000000 ) ) ;
#165 = CALENDAR_DATE ( 2021, 15, 10 ) ;
#166 = SHAPE_DEFINITION_REPRESENTATION ( #175, #189 ) ;
#167 = APPROVAL_STATUS ( 'not_yet_approved' ) ;
#168 = CALENDAR_DATE ( 2021, 15, 10 ) ;
#169 = CC_DESIGN_APPROVAL ( #159, ( #123 ) ) ;
#170 = DIRECTION ( 'NONE',  ( -3.491481338843133355E-15, 1.224646799147353454E-16, -1.000000000000000000 ) ) ;
#171 = DIRECTION ( 'NONE',  ( 0.0000000000000000000, 1.000000000000000000, 0.0000000000000000000 ) ) ;
#172 = LOCAL_TIME ( 15, 34, 22.00000000000000000, #26 ) ;
#173 = EDGE_LOOP ( 'NONE', ( #93 ) ) ;
#174 = APPROVAL ( #85, 'UNSPECIFIED' ) ;
#175 = PRODUCT_DEFINITION_SHAPE ( 'NONE', 'NONE',  #80 ) ;
#176 = CARTESIAN_POINT ( 'NONE',  ( 0.0000000000000000000, 0.0000000000000000000, 0.0000000000000000000 ) ) ;
#177 = CYLINDRICAL_SURFACE ( 'NONE', #152, 1.799999999999998712 ) ;
#178 = FACE_OUTER_BOUND ( 'NONE', #121, .T. ) ;
#179 = CARTESIAN_POINT ( 'NONE',  ( 2.287431505502680215E-15, 1.799999999999994271, 0.6551464216791710315 ) ) ;
#180 = DIRECTION ( 'NONE',  ( -3.491481338843133355E-15, 1.224646799147353454E-16, -1.000000000000000000 ) ) ;
#181 = EDGE_CURVE ( 'NONE', #66, #66, #116, .T. ) ;
#182 = DATE_AND_TIME ( #165, #113 ) ;
#183 = CC_DESIGN_DATE_AND_TIME_ASSIGNMENT ( #68, #196, ( #123 ) ) ;
#184 = PERSON_AND_ORGANIZATION ( #88, #118 ) ;
#185 = PERSON_AND_ORGANIZATION ( #88, #118 ) ;
#186 = AXIS2_PLACEMENT_3D ( 'NONE', #75, #105, #171 ) ;
#187 = UNCERTAINTY_MEASURE_WITH_UNIT (LENGTH_MEASURE( 1.000000000000000082E-05 ), #128, 'distance_accuracy_value', 'NONE');
#188 = APPROVAL_DATE_TIME ( #117, #174 ) ;
#189 = ADVANCED_BREP_SHAPE_REPRESENTATION ( '31297', ( #53, #50, #32 ), #15 ) ;
#190 = ORIENTED_EDGE ( 'NONE', *, *, #71, .T. ) ;
#191 = FACE_OUTER_BOUND ( 'NONE', #13, .T. ) ;
#192 = DIRECTION ( 'NONE',  ( -3.491481338843133355E-15, 1.224646799147353454E-16, -1.000000000000000000 ) ) ;
#193 = PRODUCT ( '31297', '31297', '', ( #25 ) ) ;
#194 = APPLICATION_CONTEXT ( 'configuration controlled 3d designs of mechanical parts and assemblies' ) ;
#195 =( NAMED_UNIT ( * ) PLANE_ANGLE_UNIT ( ) SI_UNIT ( $, .RADIAN. ) );
#196 = DATE_TIME_ROLE ( 'classification_date' ) ;
#197 = COORDINATED_UNIVERSAL_TIME_OFFSET ( 1, 0, .AHEAD. ) ;
#198 = CIRCLE ( 'NONE', #1, 1.400000000000000799 ) ;
#199 = PLANE ( 'NONE',  #40 ) ;
#200 = DIRECTION ( 'NONE',  ( 0.0000000000000000000, 1.000000000000000000, 0.0000000000000000000 ) ) ;
#201 = APPROVAL_PERSON_ORGANIZATION ( #6, #29, #39 ) ;
#202 = ORIENTED_EDGE ( 'NONE', *, *, #181, .F. ) ;
#203 = FACE_OUTER_BOUND ( 'NONE', #91, .T. ) ;
ENDSEC;
END-ISO-10303-21;
