ISO-10303-21;
HEADER;
FILE_DESCRIPTION (( 'STEP AP203' ),
    '1' );
FILE_NAME ('31296.step',
    '2021-10-15T13:34:21',
    ( '' ),
    ( '' ),
    'SwSTEP 2.0',
    'SolidWorks 2019',
    '' );
FILE_SCHEMA (( 'CONFIG_CONTROL_DESIGN' ));
ENDSEC;

DATA;
#1 = VERTEX_POINT ( 'NONE', #99 ) ;
#2 = DIRECTION ( 'NONE',  ( 4.275831445896957731E-31, 1.000000000000000000, 1.224646799147352961E-16 ) ) ;
#3 = ADVANCED_FACE ( 'NONE', ( #103, #89 ), #148, .T. ) ;
#4 = FACE_OUTER_BOUND ( 'NONE', #52, .T. ) ;
#5 = COORDINATED_UNIVERSAL_TIME_OFFSET ( 1, 0, .AHEAD. ) ;
#6 = ORIENTED_EDGE ( 'NONE', *, *, #68, .F. ) ;
#7 = APPROVAL_DATE_TIME ( #153, #202 ) ;
#8 = DESIGN_CONTEXT ( 'detailed design', #119, 'design' ) ;
#9 = AXIS2_PLACEMENT_3D ( 'NONE', #112, #86, #2 ) ;
#10 = DIRECTION ( 'NONE',  ( -3.491481338843133355E-15, 1.224646799147353207E-16, -1.000000000000000000 ) ) ;
#11 = DATE_AND_TIME ( #201, #37 ) ;
#12 = CC_DESIGN_PERSON_AND_ORGANIZATION_ASSIGNMENT ( #137, #81, ( #120 ) ) ;
#13 = DIRECTION ( 'NONE',  ( 4.275831445896958607E-31, 1.000000000000000000, 1.224646799147353207E-16 ) ) ;
#14 = EDGE_LOOP ( 'NONE', ( #131 ) ) ;
#15 = CC_DESIGN_PERSON_AND_ORGANIZATION_ASSIGNMENT ( #144, #19, ( #164 ) ) ;
#16 = PERSON_AND_ORGANIZATION ( #170, #51 ) ;
#17 = CARTESIAN_POINT ( 'NONE',  ( 1.779113393168748956E-15, -6.240289753306293226E-17, 0.5095583279726878523 ) ) ;
#18 = CALENDAR_DATE ( 2021, 15, 10 ) ;
#19 = PERSON_AND_ORGANIZATION_ROLE ( 'classification_officer' ) ;
#20 = ADVANCED_FACE ( 'NONE', ( #4 ), #135, .T. ) ;
#21 =( NAMED_UNIT ( * ) SI_UNIT ( $, .STERADIAN. ) SOLID_ANGLE_UNIT ( ) );
#22 = CALENDAR_DATE ( 2021, 15, 10 ) ;
#23 = DIRECTION ( 'NONE',  ( 3.491481338843133355E-15, -1.224646799147353207E-16, 1.000000000000000000 ) ) ;
#24 = DIRECTION ( 'NONE',  ( 3.491481338843133355E-15, -1.224646799147353207E-16, 1.000000000000000000 ) ) ;
#25 = EDGE_CURVE ( 'NONE', #28, #28, #176, .T. ) ;
#26 = DIRECTION ( 'NONE',  ( 0.0000000000000000000, 1.000000000000000000, 0.0000000000000000000 ) ) ;
#27 = CYLINDRICAL_SURFACE ( 'NONE', #67, 1.399999999999995470 ) ;
#28 = VERTEX_POINT ( 'NONE', #189 ) ;
#29 = ADVANCED_BREP_SHAPE_REPRESENTATION ( '31296', ( #138, #59, #150 ), #98 ) ;
#30 = AXIS2_PLACEMENT_3D ( 'NONE', #107, #155, #165 ) ;
#31 = APPROVAL_STATUS ( 'not_yet_approved' ) ;
#32 = APPROVAL ( #78, 'UNSPECIFIED' ) ;
#33 = EDGE_LOOP ( 'NONE', ( #149 ) ) ;
#34 = COORDINATED_UNIVERSAL_TIME_OFFSET ( 1, 0, .AHEAD. ) ;
#35 = EDGE_LOOP ( 'NONE', ( #146 ) ) ;
#36 = APPROVAL_PERSON_ORGANIZATION ( #16, #202, #166 ) ;
#37 = LOCAL_TIME ( 15, 34, 21.00000000000000000, #140 ) ;
#38 = APPROVAL_DATE_TIME ( #54, #56 ) ;
#39 = ORIENTED_EDGE ( 'NONE', *, *, #101, .T. ) ;
#40 = CARTESIAN_POINT ( 'NONE',  ( 1.779113393168748956E-15, -6.240289753306293226E-17, 0.5095583279726878523 ) ) ;
#41 = LOCAL_TIME ( 15, 34, 21.00000000000000000, #105 ) ;
#42 =( LENGTH_UNIT ( ) NAMED_UNIT ( * ) SI_UNIT ( .MILLI., .METRE. ) );
#43 = CARTESIAN_POINT ( 'NONE',  ( 0.0000000000000000000, 0.0000000000000000000, 0.0000000000000000000 ) ) ;
#44 = PLANE ( 'NONE',  #199 ) ;
#45 = DIRECTION ( 'NONE',  ( 0.0000000000000000000, 1.000000000000000000, 0.0000000000000000000 ) ) ;
#46 = COORDINATED_UNIVERSAL_TIME_OFFSET ( 1, 0, .AHEAD. ) ;
#47 = CARTESIAN_POINT ( 'NONE',  ( 5.586370142149013368E-14, 1.049831847863294578E-32, 16.00000000000000000 ) ) ;
#48 = CARTESIAN_POINT ( 'NONE',  ( 5.586370142149013368E-14, 1.399999999999994360, 16.00000000000000000 ) ) ;
#49 = VERTEX_POINT ( 'NONE', #129 ) ;
#50 = AXIS2_PLACEMENT_3D ( 'NONE', #93, #62, #157 ) ;
#51 = ORGANIZATION ( 'UNSPECIFIED', 'UNSPECIFIED', '' ) ;
#52 = EDGE_LOOP ( 'NONE', ( #178 ) ) ;
#53 = CIRCLE ( 'NONE', #30, 1.050000000000000044 ) ;
#54 = DATE_AND_TIME ( #152, #124 ) ;
#55 = CC_DESIGN_APPROVAL ( #202, ( #120 ) ) ;
#56 = APPROVAL ( #31, 'UNSPECIFIED' ) ;
#57 = SHAPE_DEFINITION_REPRESENTATION ( #106, #29 ) ;
#58 = PRODUCT ( '31296', '31296', '', ( #160 ) ) ;
#59 = MANIFOLD_SOLID_BREP ( 'Corps-Déplacer/Copier1[2]', #102 ) ;
#60 = DATE_AND_TIME ( #22, #151 ) ;
#61 = CARTESIAN_POINT ( 'NONE',  ( 1.606081415867841091E-13, 7.873738858974667597E-33, 46.00000000000000000 ) ) ;
#62 = DIRECTION ( 'NONE',  ( -3.491481338843133355E-15, 1.224646799147353207E-16, -1.000000000000000000 ) ) ;
#63 = PERSON_AND_ORGANIZATION ( #170, #51 ) ;
#64 = AXIS2_PLACEMENT_3D ( 'NONE', #80, #77, #45 ) ;
#65 = DIRECTION ( 'NONE',  ( 1.000000000000000000, 0.0000000000000000000, 0.0000000000000000000 ) ) ;
#66 = PLANE ( 'NONE',  #161 ) ;
#67 = AXIS2_PLACEMENT_3D ( 'NONE', #84, #145, #100 ) ;
#68 = EDGE_CURVE ( 'NONE', #1, #1, #53, .T. ) ;
#69 = AXIS2_PLACEMENT_3D ( 'NONE', #47, #23, #156 ) ;
#70 = CC_DESIGN_DATE_AND_TIME_ASSIGNMENT ( #104, #118, ( #94 ) ) ;
#71 = EDGE_LOOP ( 'NONE', ( #195 ) ) ;
#72 = APPROVAL_ROLE ( '' ) ;
#73 = ADVANCED_FACE ( 'NONE', ( #172, #139 ), #88, .T. ) ;
#74 = PERSON_AND_ORGANIZATION_ROLE ( 'design_supplier' ) ;
#75 = DATE_TIME_ROLE ( 'classification_date' ) ;
#76 = PERSON_AND_ORGANIZATION ( #170, #51 ) ;
#77 = DIRECTION ( 'NONE',  ( -3.491481338843133355E-15, 1.224646799147353207E-16, -1.000000000000000000 ) ) ;
#78 = APPROVAL_STATUS ( 'not_yet_approved' ) ;
#79 = CC_DESIGN_APPROVAL ( #56, ( #94 ) ) ;
#80 = CARTESIAN_POINT ( 'NONE',  ( 1.593861231181890219E-13, -5.590512638107667560E-15, 45.64999999999999858 ) ) ;
#81 = PERSON_AND_ORGANIZATION_ROLE ( 'creator' ) ;
#82 = CIRCLE ( 'NONE', #64, 1.399999999999999911 ) ;
#83 = FACE_OUTER_BOUND ( 'NONE', #117, .T. ) ;
#84 = CARTESIAN_POINT ( 'NONE',  ( 0.0000000000000000000, 0.0000000000000000000, 0.0000000000000000000 ) ) ;
#85 = EDGE_LOOP ( 'NONE', ( #6 ) ) ;
#86 = DIRECTION ( 'NONE',  ( -3.491481338843133355E-15, 1.224646799147353207E-16, -1.000000000000000000 ) ) ;
#87 = PERSON_AND_ORGANIZATION ( #170, #51 ) ;
#88 = CONICAL_SURFACE ( 'NONE', #109, 1.050000000000000044, 0.7853981633974439491 ) ;
#89 = FACE_OUTER_BOUND ( 'NONE', #159, .T. ) ;
#90 = APPLICATION_CONTEXT ( 'configuration controlled 3d designs of mechanical parts and assemblies' ) ;
#91 = APPROVAL_STATUS ( 'not_yet_approved' ) ;
#92 = EDGE_LOOP ( 'NONE', ( #163 ) ) ;
#93 = CARTESIAN_POINT ( 'NONE',  ( 5.586370142149013368E-14, -1.959434878635765131E-15, 16.00000000000000000 ) ) ;
#94 = PRODUCT_DEFINITION ( 'UNKNOWN', '', #120, #8 ) ;
#95 = UNCERTAINTY_MEASURE_WITH_UNIT (LENGTH_MEASURE( 1.000000000000000082E-05 ), #42, 'distance_accuracy_value', 'NONE');
#96 = LOCAL_TIME ( 15, 34, 21.00000000000000000, #5 ) ;
#97 = DIRECTION ( 'NONE',  ( -3.491481338843133355E-15, 1.224646799147353207E-16, -1.000000000000000000 ) ) ;
#98 =( GEOMETRIC_REPRESENTATION_CONTEXT ( 3 ) GLOBAL_UNCERTAINTY_ASSIGNED_CONTEXT ( ( #95 ) ) GLOBAL_UNIT_ASSIGNED_CONTEXT ( ( #42, #171, #21 ) ) REPRESENTATION_CONTEXT ( 'NONE', 'WORKASPACE' ) );
#99 = CARTESIAN_POINT ( 'NONE',  ( 1.606081415867841091E-13, 1.049999999999994271, 46.00000000000000000 ) ) ;
#100 = DIRECTION ( 'NONE',  ( 4.275831445896958607E-31, 1.000000000000000000, 1.224646799147353207E-16 ) ) ;
#101 = EDGE_CURVE ( 'NONE', #49, #49, #82, .T. ) ;
#102 = CLOSED_SHELL ( 'NONE', ( #121, #168, #20 ) ) ;
#103 = FACE_OUTER_BOUND ( 'NONE', #197, .T. ) ;
#104 = DATE_AND_TIME ( #136, #41 ) ;
#105 = COORDINATED_UNIVERSAL_TIME_OFFSET ( 1, 0, .AHEAD. ) ;
#106 = PRODUCT_DEFINITION_SHAPE ( 'NONE', 'NONE',  #94 ) ;
#107 = CARTESIAN_POINT ( 'NONE',  ( 1.606081415867841091E-13, -5.633375276077824704E-15, 46.00000000000000000 ) ) ;
#108 = CARTESIAN_POINT ( 'NONE',  ( 5.586370142149013368E-14, -1.959434878635765131E-15, 16.00000000000000000 ) ) ;
#109 = AXIS2_PLACEMENT_3D ( 'NONE', #123, #10, #26 ) ;
#110 = CARTESIAN_POINT ( 'NONE',  ( 5.586370142149013368E-14, 1.399999999999994360, 16.00000000000000000 ) ) ;
#111 = CC_DESIGN_APPROVAL ( #32, ( #164 ) ) ;
#112 = CARTESIAN_POINT ( 'NONE',  ( 0.0000000000000000000, 0.0000000000000000000, 0.0000000000000000000 ) ) ;
#113 = DIRECTION ( 'NONE',  ( 0.0000000000000000000, 0.0000000000000000000, 1.000000000000000000 ) ) ;
#114 = AXIS2_PLACEMENT_3D ( 'NONE', #17, #24, #126 ) ;
#115 = VERTEX_POINT ( 'NONE', #110 ) ;
#116 = ORIENTED_EDGE ( 'NONE', *, *, #134, .F. ) ;
#117 = EDGE_LOOP ( 'NONE', ( #192 ) ) ;
#118 = DATE_TIME_ROLE ( 'creation_date' ) ;
#119 = APPLICATION_CONTEXT ( 'configuration controlled 3d designs of mechanical parts and assemblies' ) ;
#120 = PRODUCT_DEFINITION_FORMATION_WITH_SPECIFIED_SOURCE ( 'ANY', '', #58, .NOT_KNOWN. ) ;
#121 = ADVANCED_FACE ( 'NONE', ( #83 ), #169, .T. ) ;
#122 = SECURITY_CLASSIFICATION_LEVEL ( 'unclassified' ) ;
#123 = CARTESIAN_POINT ( 'NONE',  ( 1.606081415867841091E-13, -5.633375276077824704E-15, 46.00000000000000000 ) ) ;
#124 = LOCAL_TIME ( 15, 34, 21.00000000000000000, #34 ) ;
#125 = CLOSED_SHELL ( 'NONE', ( #174, #3, #73, #147 ) ) ;
#126 = DIRECTION ( 'NONE',  ( -5.502656983963553279E-31, -1.000000000000000000, -1.548860246407869746E-16 ) ) ;
#127 = DIRECTION ( 'NONE',  ( 0.0000000000000000000, 1.000000000000000000, 0.0000000000000000000 ) ) ;
#128 = DIRECTION ( 'NONE',  ( -4.275831445896958607E-31, -1.000000000000000000, -1.224646799147353207E-16 ) ) ;
#129 = CARTESIAN_POINT ( 'NONE',  ( 1.593861231181890219E-13, 1.399999999999994360, 45.64999999999999858 ) ) ;
#130 = APPLICATION_PROTOCOL_DEFINITION ( 'international standard', 'config_control_design', 1994, #119 ) ;
#131 = ORIENTED_EDGE ( 'NONE', *, *, #141, .T. ) ;
#132 = AXIS2_PLACEMENT_3D ( 'NONE', #40, #142, #180 ) ;
#133 = PRODUCT_RELATED_PRODUCT_CATEGORY ( 'detail', '', ( #58 ) ) ;
#134 = EDGE_CURVE ( 'NONE', #115, #115, #143, .T. ) ;
#135 = PLANE ( 'NONE',  #69 ) ;
#136 = CALENDAR_DATE ( 2021, 15, 10 ) ;
#137 = PERSON_AND_ORGANIZATION ( #170, #51 ) ;
#138 = MANIFOLD_SOLID_BREP ( 'Corps-Déplacer/Copier1[1]', #125 ) ;
#139 = FACE_BOUND ( 'NONE', #35, .T. ) ;
#140 = COORDINATED_UNIVERSAL_TIME_OFFSET ( 1, 0, .AHEAD. ) ;
#141 = EDGE_CURVE ( 'NONE', #158, #158, #193, .T. ) ;
#142 = DIRECTION ( 'NONE',  ( -3.491481338843133355E-15, 1.224646799147353207E-16, -1.000000000000000000 ) ) ;
#143 = CIRCLE ( 'NONE', #50, 1.399999999999996358 ) ;
#144 = PERSON_AND_ORGANIZATION ( #170, #51 ) ;
#145 = DIRECTION ( 'NONE',  ( -3.491481338843133355E-15, 1.224646799147353207E-16, -1.000000000000000000 ) ) ;
#146 = ORIENTED_EDGE ( 'NONE', *, *, #68, .T. ) ;
#147 = ADVANCED_FACE ( 'NONE', ( #200 ), #44, .F. ) ;
#148 = CYLINDRICAL_SURFACE ( 'NONE', #9, 1.399999999999998135 ) ;
#149 = ORIENTED_EDGE ( 'NONE', *, *, #25, .F. ) ;
#150 = AXIS2_PLACEMENT_3D ( 'NONE', #43, #113, #65 ) ;
#151 = LOCAL_TIME ( 15, 34, 21.00000000000000000, #46 ) ;
#152 = CALENDAR_DATE ( 2021, 15, 10 ) ;
#153 = DATE_AND_TIME ( #18, #96 ) ;
#154 = APPLICATION_PROTOCOL_DEFINITION ( 'international standard', 'config_control_design', 1994, #90 ) ;
#155 = DIRECTION ( 'NONE',  ( -3.491481338843133355E-15, 1.224646799147353207E-16, -1.000000000000000000 ) ) ;
#156 = DIRECTION ( 'NONE',  ( -4.275831445896958607E-31, -1.000000000000000000, -1.224646799147353207E-16 ) ) ;
#157 = DIRECTION ( 'NONE',  ( 0.0000000000000000000, 1.000000000000000000, 0.0000000000000000000 ) ) ;
#158 = VERTEX_POINT ( 'NONE', #48 ) ;
#159 = EDGE_LOOP ( 'NONE', ( #39 ) ) ;
#160 = MECHANICAL_CONTEXT ( 'NONE', #90, 'mechanical' ) ;
#161 = AXIS2_PLACEMENT_3D ( 'NONE', #162, #203, #128 ) ;
#162 = CARTESIAN_POINT ( 'NONE',  ( 5.586370142149013368E-14, 1.049831847863294578E-32, 16.00000000000000000 ) ) ;
#163 = ORIENTED_EDGE ( 'NONE', *, *, #101, .F. ) ;
#164 = SECURITY_CLASSIFICATION ( '', '', #122 ) ;
#165 = DIRECTION ( 'NONE',  ( 0.0000000000000000000, 1.000000000000000000, 0.0000000000000000000 ) ) ;
#166 = APPROVAL_ROLE ( '' ) ;
#167 = APPROVAL_ROLE ( '' ) ;
#168 = ADVANCED_FACE ( 'NONE', ( #187, #173 ), #27, .T. ) ;
#169 = CONICAL_SURFACE ( 'NONE', #114, 1.399999999999994360, 1.221730476396026610 ) ;
#170 = PERSON ( 'UNSPECIFIED', 'UNSPECIFIED', 'UNSPECIFIED', ('UNSPECIFIED'), ('UNSPECIFIED'), ('UNSPECIFIED') ) ;
#171 =( NAMED_UNIT ( * ) PLANE_ANGLE_UNIT ( ) SI_UNIT ( $, .RADIAN. ) );
#172 = FACE_OUTER_BOUND ( 'NONE', #92, .T. ) ;
#173 = FACE_OUTER_BOUND ( 'NONE', #14, .T. ) ;
#174 = ADVANCED_FACE ( 'NONE', ( #175 ), #66, .F. ) ;
#175 = FACE_OUTER_BOUND ( 'NONE', #71, .T. ) ;
#176 = CIRCLE ( 'NONE', #132, 1.399999999999994360 ) ;
#177 = PERSON_AND_ORGANIZATION_ROLE ( 'design_owner' ) ;
#178 = ORIENTED_EDGE ( 'NONE', *, *, #141, .F. ) ;
#179 = AXIS2_PLACEMENT_3D ( 'NONE', #108, #97, #127 ) ;
#180 = DIRECTION ( 'NONE',  ( 5.502656983963553279E-31, 1.000000000000000000, 1.548860246407869746E-16 ) ) ;
#181 = APPROVAL_PERSON_ORGANIZATION ( #63, #56, #72 ) ;
#182 = CC_DESIGN_PERSON_AND_ORGANIZATION_ASSIGNMENT ( #76, #74, ( #120 ) ) ;
#183 = APPROVAL_DATE_TIME ( #60, #32 ) ;
#184 = APPROVAL_PERSON_ORGANIZATION ( #185, #32, #167 ) ;
#185 = PERSON_AND_ORGANIZATION ( #170, #51 ) ;
#186 = DIRECTION ( 'NONE',  ( -3.491481338843133355E-15, 1.224646799147353207E-16, -1.000000000000000000 ) ) ;
#187 = FACE_OUTER_BOUND ( 'NONE', #33, .T. ) ;
#188 = CC_DESIGN_PERSON_AND_ORGANIZATION_ASSIGNMENT ( #87, #196, ( #94 ) ) ;
#189 = CARTESIAN_POINT ( 'NONE',  ( 1.779113393168749745E-15, 1.399999999999994360, 0.5095583279726880743 ) ) ;
#190 = PERSON_AND_ORGANIZATION ( #170, #51 ) ;
#191 = CC_DESIGN_SECURITY_CLASSIFICATION ( #164, ( #120 ) ) ;
#192 = ORIENTED_EDGE ( 'NONE', *, *, #25, .T. ) ;
#193 = CIRCLE ( 'NONE', #179, 1.399999999999996358 ) ;
#194 = CC_DESIGN_DATE_AND_TIME_ASSIGNMENT ( #11, #75, ( #164 ) ) ;
#195 = ORIENTED_EDGE ( 'NONE', *, *, #134, .T. ) ;
#196 = PERSON_AND_ORGANIZATION_ROLE ( 'creator' ) ;
#197 = EDGE_LOOP ( 'NONE', ( #116 ) ) ;
#198 = CC_DESIGN_PERSON_AND_ORGANIZATION_ASSIGNMENT ( #190, #177, ( #58 ) ) ;
#199 = AXIS2_PLACEMENT_3D ( 'NONE', #61, #186, #13 ) ;
#200 = FACE_OUTER_BOUND ( 'NONE', #85, .T. ) ;
#201 = CALENDAR_DATE ( 2021, 15, 10 ) ;
#202 = APPROVAL ( #91, 'UNSPECIFIED' ) ;
#203 = DIRECTION ( 'NONE',  ( 3.491481338843133355E-15, -1.224646799147353207E-16, 1.000000000000000000 ) ) ;
ENDSEC;
END-ISO-10303-21;
