ISO-10303-21;
HEADER;
FILE_DESCRIPTION (( 'STEP AP203' ),
    '1' );
FILE_NAME ('31295.step',
    '2021-10-15T13:34:20',
    ( '' ),
    ( '' ),
    'SwSTEP 2.0',
    'SolidWorks 2019',
    '' );
FILE_SCHEMA (( 'CONFIG_CONTROL_DESIGN' ));
ENDSEC;

DATA;
#1 = DIRECTION ( 'NONE',  ( 4.279844320860538909E-31, 1.000000000000000000, 1.606225440719271297E-16 ) ) ;
#2 = COORDINATED_UNIVERSAL_TIME_OFFSET ( 1, 0, .AHEAD. ) ;
#3 = ORIENTED_EDGE ( 'NONE', *, *, #197, .F. ) ;
#4 = CC_DESIGN_PERSON_AND_ORGANIZATION_ASSIGNMENT ( #36, #78, ( #37 ) ) ;
#5 = FACE_OUTER_BOUND ( 'NONE', #88, .T. ) ;
#6 = PERSON_AND_ORGANIZATION_ROLE ( 'creator' ) ;
#7 = PERSON_AND_ORGANIZATION_ROLE ( 'creator' ) ;
#8 = CIRCLE ( 'NONE', #131, 1.000000000000001110 ) ;
#9 = CARTESIAN_POINT ( 'NONE',  ( 1.606081415867841091E-13, -5.633375276077824704E-15, 46.00000000000000000 ) ) ;
#10 = CARTESIAN_POINT ( 'NONE',  ( 1.606081415867841091E-13, -5.633375276077824704E-15, 46.00000000000000000 ) ) ;
#11 = CC_DESIGN_PERSON_AND_ORGANIZATION_ASSIGNMENT ( #116, #12, ( #182 ) ) ;
#12 = PERSON_AND_ORGANIZATION_ROLE ( 'design_owner' ) ;
#13 = FACE_OUTER_BOUND ( 'NONE', #175, .T. ) ;
#14 = CC_DESIGN_PERSON_AND_ORGANIZATION_ASSIGNMENT ( #148, #7, ( #37 ) ) ;
#15 = EDGE_CURVE ( 'NONE', #48, #48, #176, .T. ) ;
#16 = CARTESIAN_POINT ( 'NONE',  ( 5.586370142149013368E-14, 1.012337853296749096E-32, 16.00000000000000000 ) ) ;
#17 = CALENDAR_DATE ( 2021, 15, 10 ) ;
#18 = CARTESIAN_POINT ( 'NONE',  ( 0.0000000000000000000, 0.0000000000000000000, 0.0000000000000000000 ) ) ;
#19 = APPROVAL_DATE_TIME ( #165, #141 ) ;
#20 = AXIS2_PLACEMENT_3D ( 'NONE', #63, #179, #93 ) ;
#21 = PRODUCT_DEFINITION ( 'UNKNOWN', '', #37, #56 ) ;
#22 = CYLINDRICAL_SURFACE ( 'NONE', #52, 1.349999999999999201 ) ;
#23 = PRODUCT_DEFINITION_SHAPE ( 'NONE', 'NONE',  #21 ) ;
#24 = DIRECTION ( 'NONE',  ( 0.0000000000000000000, 1.000000000000000000, 0.0000000000000000000 ) ) ;
#25 = ADVANCED_FACE ( 'NONE', ( #5 ), #159, .T. ) ;
#26 = COORDINATED_UNIVERSAL_TIME_OFFSET ( 1, 0, .AHEAD. ) ;
#27 = DIRECTION ( 'NONE',  ( -3.491481338843133355E-15, 1.224646799147353207E-16, -1.000000000000000000 ) ) ;
#28 = CARTESIAN_POINT ( 'NONE',  ( 5.586370142149013368E-14, -1.959434878635765131E-15, 16.00000000000000000 ) ) ;
#29 = CARTESIAN_POINT ( 'NONE',  ( 5.586370142149013368E-14, 1.349999999999995426, 16.00000000000000000 ) ) ;
#30 = CLOSED_SHELL ( 'NONE', ( #150, #122, #94, #193 ) ) ;
#31 = ORIENTED_EDGE ( 'NONE', *, *, #202, .T. ) ;
#32 = PERSON_AND_ORGANIZATION ( #151, #125 ) ;
#33 = APPROVAL ( #166, 'UNSPECIFIED' ) ;
#34 = DIRECTION ( 'NONE',  ( -3.491481338843133355E-15, 1.224646799147353207E-16, -1.000000000000000000 ) ) ;
#35 = AXIS2_PLACEMENT_3D ( 'NONE', #66, #160, #1 ) ;
#36 = PERSON_AND_ORGANIZATION ( #151, #125 ) ;
#37 = PRODUCT_DEFINITION_FORMATION_WITH_SPECIFIED_SOURCE ( 'ANY', '', #182, .NOT_KNOWN. ) ;
#38 = LOCAL_TIME ( 15, 34, 20.00000000000000000, #119 ) ;
#39 = COORDINATED_UNIVERSAL_TIME_OFFSET ( 1, 0, .AHEAD. ) ;
#40 = CARTESIAN_POINT ( 'NONE',  ( 0.0000000000000000000, 0.0000000000000000000, 0.0000000000000000000 ) ) ;
#41 = LOCAL_TIME ( 15, 34, 20.00000000000000000, #2 ) ;
#42 = APPROVAL_ROLE ( '' ) ;
#43 = DIRECTION ( 'NONE',  ( 1.000000000000000000, 0.0000000000000000000, 0.0000000000000000000 ) ) ;
#44 = FACE_OUTER_BOUND ( 'NONE', #161, .T. ) ;
#45 = CARTESIAN_POINT ( 'NONE',  ( 5.586370142149013368E-14, 1.012337853296749096E-32, 16.00000000000000000 ) ) ;
#46 = CALENDAR_DATE ( 2021, 15, 10 ) ;
#47 = DIRECTION ( 'NONE',  ( 0.0000000000000000000, 1.000000000000000000, 0.0000000000000000000 ) ) ;
#48 = VERTEX_POINT ( 'NONE', #190 ) ;
#49 = VERTEX_POINT ( 'NONE', #130 ) ;
#50 = EDGE_LOOP ( 'NONE', ( #107 ) ) ;
#51 = EDGE_LOOP ( 'NONE', ( #143 ) ) ;
#52 = AXIS2_PLACEMENT_3D ( 'NONE', #40, #152, #136 ) ;
#53 = APPROVAL_ROLE ( '' ) ;
#54 = LOCAL_TIME ( 15, 34, 20.00000000000000000, #39 ) ;
#55 = LOCAL_TIME ( 15, 34, 20.00000000000000000, #26 ) ;
#56 = DESIGN_CONTEXT ( 'detailed design', #184, 'design' ) ;
#57 = CC_DESIGN_DATE_AND_TIME_ASSIGNMENT ( #89, #147, ( #21 ) ) ;
#58 = AXIS2_PLACEMENT_3D ( 'NONE', #170, #27, #113 ) ;
#59 = DIRECTION ( 'NONE',  ( 0.0000000000000000000, 0.0000000000000000000, 1.000000000000000000 ) ) ;
#60 = ADVANCED_BREP_SHAPE_REPRESENTATION ( '31295', ( #67, #61, #180 ), #145 ) ;
#61 = MANIFOLD_SOLID_BREP ( 'Corps-Déplacer/Copier1[2]', #106 ) ;
#62 = PLANE ( 'NONE',  #167 ) ;
#63 = CARTESIAN_POINT ( 'NONE',  ( 1.715573629127009373E-15, -6.017422262116787992E-17, 0.4913598162593780239 ) ) ;
#64 = APPROVAL_STATUS ( 'not_yet_approved' ) ;
#65 = MECHANICAL_CONTEXT ( 'NONE', #183, 'mechanical' ) ;
#66 = CARTESIAN_POINT ( 'NONE',  ( 1.715573629127009373E-15, -6.017422262116787992E-17, 0.4913598162593780239 ) ) ;
#67 = MANIFOLD_SOLID_BREP ( 'Corps-Déplacer/Copier1[1]', #30 ) ;
#68 = AXIS2_PLACEMENT_3D ( 'NONE', #28, #140, #105 ) ;
#69 = ADVANCED_FACE ( 'NONE', ( #201, #154 ), #124, .T. ) ;
#70 = EDGE_LOOP ( 'NONE', ( #194 ) ) ;
#71 = CONICAL_SURFACE ( 'NONE', #139, 1.000000000000001110, 0.7853981633974439491 ) ;
#72 = EDGE_LOOP ( 'NONE', ( #135 ) ) ;
#73 = ADVANCED_FACE ( 'NONE', ( #13 ), #178, .T. ) ;
#74 = DIRECTION ( 'NONE',  ( -4.275831445896958607E-31, -1.000000000000000000, -1.224646799147353207E-16 ) ) ;
#75 = ORIENTED_EDGE ( 'NONE', *, *, #15, .F. ) ;
#76 = APPROVAL_STATUS ( 'not_yet_approved' ) ;
#77 = CC_DESIGN_DATE_AND_TIME_ASSIGNMENT ( #186, #96, ( #146 ) ) ;
#78 = PERSON_AND_ORGANIZATION_ROLE ( 'design_supplier' ) ;
#79 = APPLICATION_PROTOCOL_DEFINITION ( 'international standard', 'config_control_design', 1994, #183 ) ;
#80 = DIRECTION ( 'NONE',  ( -3.491481338843133355E-15, 1.224646799147353207E-16, -1.000000000000000000 ) ) ;
#81 = APPROVAL_PERSON_ORGANIZATION ( #32, #118, #157 ) ;
#82 =( NAMED_UNIT ( * ) PLANE_ANGLE_UNIT ( ) SI_UNIT ( $, .RADIAN. ) );
#83 = FACE_OUTER_BOUND ( 'NONE', #70, .T. ) ;
#84 = CIRCLE ( 'NONE', #192, 1.349999999999997424 ) ;
#85 = DIRECTION ( 'NONE',  ( -4.275831445896958607E-31, -1.000000000000000000, -1.224646799147353207E-16 ) ) ;
#86 = DIRECTION ( 'NONE',  ( -3.491481338843133355E-15, 1.224646799147353207E-16, -1.000000000000000000 ) ) ;
#87 =( LENGTH_UNIT ( ) NAMED_UNIT ( * ) SI_UNIT ( .MILLI., .METRE. ) );
#88 = EDGE_LOOP ( 'NONE', ( #103 ) ) ;
#89 = DATE_AND_TIME ( #17, #54 ) ;
#90 = DIRECTION ( 'NONE',  ( 3.491481338843133355E-15, -1.224646799147353207E-16, 1.000000000000000000 ) ) ;
#91 = PERSON_AND_ORGANIZATION ( #151, #125 ) ;
#92 = AXIS2_PLACEMENT_3D ( 'NONE', #162, #34, #144 ) ;
#93 = DIRECTION ( 'NONE',  ( -4.279844320860538909E-31, -1.000000000000000000, -1.606225440719271297E-16 ) ) ;
#94 = ADVANCED_FACE ( 'NONE', ( #168, #128 ), #71, .T. ) ;
#95 = UNCERTAINTY_MEASURE_WITH_UNIT (LENGTH_MEASURE( 1.000000000000000082E-05 ), #87, 'distance_accuracy_value', 'NONE');
#96 = DATE_TIME_ROLE ( 'classification_date' ) ;
#97 = APPROVAL_PERSON_ORGANIZATION ( #91, #141, #53 ) ;
#98 = CC_DESIGN_APPROVAL ( #33, ( #146 ) ) ;
#99 = CIRCLE ( 'NONE', #35, 1.349999999999995426 ) ;
#100 = FACE_OUTER_BOUND ( 'NONE', #104, .T. ) ;
#101 = DATE_AND_TIME ( #46, #55 ) ;
#102 = VERTEX_POINT ( 'NONE', #203 ) ;
#103 = ORIENTED_EDGE ( 'NONE', *, *, #132, .F. ) ;
#104 = EDGE_LOOP ( 'NONE', ( #142 ) ) ;
#105 = DIRECTION ( 'NONE',  ( 0.0000000000000000000, 1.000000000000000000, 0.0000000000000000000 ) ) ;
#106 = CLOSED_SHELL ( 'NONE', ( #73, #69, #25 ) ) ;
#107 = ORIENTED_EDGE ( 'NONE', *, *, #174, .T. ) ;
#108 = PERSON_AND_ORGANIZATION ( #151, #125 ) ;
#109 = CALENDAR_DATE ( 2021, 15, 10 ) ;
#110 = PERSON_AND_ORGANIZATION ( #151, #125 ) ;
#111 = PERSON_AND_ORGANIZATION ( #151, #125 ) ;
#112 = CARTESIAN_POINT ( 'NONE',  ( 5.586370142149013368E-14, -1.959434878635765131E-15, 16.00000000000000000 ) ) ;
#113 = DIRECTION ( 'NONE',  ( 4.275831445896958607E-31, 1.000000000000000000, 1.224646799147353207E-16 ) ) ;
#114 = LOCAL_TIME ( 15, 34, 20.00000000000000000, #200 ) ;
#115 = ORIENTED_EDGE ( 'NONE', *, *, #197, .T. ) ;
#116 = PERSON_AND_ORGANIZATION ( #151, #125 ) ;
#117 = AXIS2_PLACEMENT_3D ( 'NONE', #16, #90, #74 ) ;
#118 = APPROVAL ( #64, 'UNSPECIFIED' ) ;
#119 = COORDINATED_UNIVERSAL_TIME_OFFSET ( 1, 0, .AHEAD. ) ;
#120 = CC_DESIGN_APPROVAL ( #118, ( #21 ) ) ;
#121 = PERSON_AND_ORGANIZATION_ROLE ( 'classification_officer' ) ;
#122 = ADVANCED_FACE ( 'NONE', ( #44, #83 ), #22, .T. ) ;
#123 = SECURITY_CLASSIFICATION_LEVEL ( 'unclassified' ) ;
#124 = CYLINDRICAL_SURFACE ( 'NONE', #198, 1.349999999999996536 ) ;
#125 = ORGANIZATION ( 'UNSPECIFIED', 'UNSPECIFIED', '' ) ;
#126 = SHAPE_DEFINITION_REPRESENTATION ( #23, #60 ) ;
#127 = DIRECTION ( 'NONE',  ( 3.491481338843133355E-15, -1.224646799147353207E-16, 1.000000000000000000 ) ) ;
#128 = FACE_BOUND ( 'NONE', #50, .T. ) ;
#129 = VERTEX_POINT ( 'NONE', #173 ) ;
#130 = CARTESIAN_POINT ( 'NONE',  ( 1.715573629127009964E-15, 1.349999999999995426, 0.4913598162593782459 ) ) ;
#131 = AXIS2_PLACEMENT_3D ( 'NONE', #10, #86, #24 ) ;
#132 = EDGE_CURVE ( 'NONE', #102, #102, #84, .T. ) ;
#133 = DATE_AND_TIME ( #134, #41 ) ;
#134 = CALENDAR_DATE ( 2021, 15, 10 ) ;
#135 = ORIENTED_EDGE ( 'NONE', *, *, #202, .F. ) ;
#136 = DIRECTION ( 'NONE',  ( 4.275831445896958607E-31, 1.000000000000000000, 1.224646799147353207E-16 ) ) ;
#137 = DIRECTION ( 'NONE',  ( 0.0000000000000000000, 1.000000000000000000, 0.0000000000000000000 ) ) ;
#138 = CALENDAR_DATE ( 2021, 15, 10 ) ;
#139 = AXIS2_PLACEMENT_3D ( 'NONE', #9, #189, #137 ) ;
#140 = DIRECTION ( 'NONE',  ( -3.491481338843133355E-15, 1.224646799147353207E-16, -1.000000000000000000 ) ) ;
#141 = APPROVAL ( #76, 'UNSPECIFIED' ) ;
#142 = ORIENTED_EDGE ( 'NONE', *, *, #174, .F. ) ;
#143 = ORIENTED_EDGE ( 'NONE', *, *, #132, .T. ) ;
#144 = DIRECTION ( 'NONE',  ( 0.0000000000000000000, 1.000000000000000000, 0.0000000000000000000 ) ) ;
#145 =( GEOMETRIC_REPRESENTATION_CONTEXT ( 3 ) GLOBAL_UNCERTAINTY_ASSIGNED_CONTEXT ( ( #95 ) ) GLOBAL_UNIT_ASSIGNED_CONTEXT ( ( #87, #82, #187 ) ) REPRESENTATION_CONTEXT ( 'NONE', 'WORKASPACE' ) );
#146 = SECURITY_CLASSIFICATION ( '', '', #123 ) ;
#147 = DATE_TIME_ROLE ( 'creation_date' ) ;
#148 = PERSON_AND_ORGANIZATION ( #151, #125 ) ;
#149 = PRODUCT_RELATED_PRODUCT_CATEGORY ( 'detail', '', ( #182 ) ) ;
#150 = ADVANCED_FACE ( 'NONE', ( #153 ), #62, .F. ) ;
#151 = PERSON ( 'UNSPECIFIED', 'UNSPECIFIED', 'UNSPECIFIED', ('UNSPECIFIED'), ('UNSPECIFIED'), ('UNSPECIFIED') ) ;
#152 = DIRECTION ( 'NONE',  ( -3.491481338843133355E-15, 1.224646799147353207E-16, -1.000000000000000000 ) ) ;
#153 = FACE_OUTER_BOUND ( 'NONE', #196, .T. ) ;
#154 = FACE_OUTER_BOUND ( 'NONE', #51, .T. ) ;
#155 = VERTEX_POINT ( 'NONE', #29 ) ;
#156 = EDGE_LOOP ( 'NONE', ( #75 ) ) ;
#157 = APPROVAL_ROLE ( '' ) ;
#158 = CIRCLE ( 'NONE', #68, 1.349999999999997424 ) ;
#159 = PLANE ( 'NONE',  #117 ) ;
#160 = DIRECTION ( 'NONE',  ( -3.491481338843133355E-15, 1.224646799147353207E-16, -1.000000000000000000 ) ) ;
#161 = EDGE_LOOP ( 'NONE', ( #3 ) ) ;
#162 = CARTESIAN_POINT ( 'NONE',  ( 1.593861231181890219E-13, -5.590512638107667560E-15, 45.64999999999999858 ) ) ;
#163 = APPROVAL_PERSON_ORGANIZATION ( #111, #33, #42 ) ;
#164 = DIRECTION ( 'NONE',  ( -3.491481338843133355E-15, 1.224646799147353207E-16, -1.000000000000000000 ) ) ;
#165 = DATE_AND_TIME ( #109, #38 ) ;
#166 = APPROVAL_STATUS ( 'not_yet_approved' ) ;
#167 = AXIS2_PLACEMENT_3D ( 'NONE', #45, #127, #85 ) ;
#168 = FACE_OUTER_BOUND ( 'NONE', #156, .T. ) ;
#169 = APPROVAL_DATE_TIME ( #101, #33 ) ;
#170 = CARTESIAN_POINT ( 'NONE',  ( 1.606081415867841091E-13, 7.498798913309212774E-33, 46.00000000000000000 ) ) ;
#171 = DIRECTION ( 'NONE',  ( 4.275831445896958607E-31, 1.000000000000000000, 1.224646799147353207E-16 ) ) ;
#172 = CC_DESIGN_PERSON_AND_ORGANIZATION_ASSIGNMENT ( #110, #121, ( #146 ) ) ;
#173 = CARTESIAN_POINT ( 'NONE',  ( 1.606081415867841091E-13, 0.9999999999999954481, 46.00000000000000000 ) ) ;
#174 = EDGE_CURVE ( 'NONE', #129, #129, #8, .T. ) ;
#175 = EDGE_LOOP ( 'NONE', ( #31 ) ) ;
#176 = CIRCLE ( 'NONE', #92, 1.350000000000001199 ) ;
#177 = APPLICATION_PROTOCOL_DEFINITION ( 'international standard', 'config_control_design', 1994, #184 ) ;
#178 = CONICAL_SURFACE ( 'NONE', #20, 1.349999999999995426, 1.221730476396026388 ) ;
#179 = DIRECTION ( 'NONE',  ( 3.491481338843133355E-15, -1.224646799147353207E-16, 1.000000000000000000 ) ) ;
#180 = AXIS2_PLACEMENT_3D ( 'NONE', #199, #59, #43 ) ;
#181 = CC_DESIGN_PERSON_AND_ORGANIZATION_ASSIGNMENT ( #108, #6, ( #21 ) ) ;
#182 = PRODUCT ( '31295', '31295', '', ( #65 ) ) ;
#183 = APPLICATION_CONTEXT ( 'configuration controlled 3d designs of mechanical parts and assemblies' ) ;
#184 = APPLICATION_CONTEXT ( 'configuration controlled 3d designs of mechanical parts and assemblies' ) ;
#185 = CC_DESIGN_APPROVAL ( #141, ( #37 ) ) ;
#186 = DATE_AND_TIME ( #138, #114 ) ;
#187 =( NAMED_UNIT ( * ) SI_UNIT ( $, .STERADIAN. ) SOLID_ANGLE_UNIT ( ) );
#188 = PLANE ( 'NONE',  #58 ) ;
#189 = DIRECTION ( 'NONE',  ( -3.491481338843133355E-15, 1.224646799147353207E-16, -1.000000000000000000 ) ) ;
#190 = CARTESIAN_POINT ( 'NONE',  ( 1.593861231181890219E-13, 1.349999999999995426, 45.64999999999999858 ) ) ;
#191 = CC_DESIGN_SECURITY_CLASSIFICATION ( #146, ( #37 ) ) ;
#192 = AXIS2_PLACEMENT_3D ( 'NONE', #112, #80, #47 ) ;
#193 = ADVANCED_FACE ( 'NONE', ( #100 ), #188, .F. ) ;
#194 = ORIENTED_EDGE ( 'NONE', *, *, #15, .T. ) ;
#195 = APPROVAL_DATE_TIME ( #133, #118 ) ;
#196 = EDGE_LOOP ( 'NONE', ( #115 ) ) ;
#197 = EDGE_CURVE ( 'NONE', #155, #155, #158, .T. ) ;
#198 = AXIS2_PLACEMENT_3D ( 'NONE', #18, #164, #171 ) ;
#199 = CARTESIAN_POINT ( 'NONE',  ( 0.0000000000000000000, 0.0000000000000000000, 0.0000000000000000000 ) ) ;
#200 = COORDINATED_UNIVERSAL_TIME_OFFSET ( 1, 0, .AHEAD. ) ;
#201 = FACE_OUTER_BOUND ( 'NONE', #72, .T. ) ;
#202 = EDGE_CURVE ( 'NONE', #49, #49, #99, .T. ) ;
#203 = CARTESIAN_POINT ( 'NONE',  ( 5.586370142149013368E-14, 1.349999999999995426, 16.00000000000000000 ) ) ;
ENDSEC;
END-ISO-10303-21;
