ISO-10303-21;
HEADER;
FILE_DESCRIPTION (( 'STEP AP203' ),
    '1' );
FILE_NAME ('31294.step',
    '2021-10-15T13:34:20',
    ( '' ),
    ( '' ),
    'SwSTEP 2.0',
    'SolidWorks 2019',
    '' );
FILE_SCHEMA (( 'CONFIG_CONTROL_DESIGN' ));
ENDSEC;

DATA;
#1 = FACE_OUTER_BOUND ( 'NONE', #64, .T. ) ;
#2 = APPROVAL_ROLE ( '' ) ;
#3 = PRODUCT_RELATED_PRODUCT_CATEGORY ( 'detail', '', ( #9 ) ) ;
#4 = CALENDAR_DATE ( 2021, 15, 10 ) ;
#5 = DATE_AND_TIME ( #101, #14 ) ;
#6 = COORDINATED_UNIVERSAL_TIME_OFFSET ( 1, 0, .AHEAD. ) ;
#7 = EDGE_LOOP ( 'NONE', ( #110 ) ) ;
#8 = ORIENTED_EDGE ( 'NONE', *, *, #62, .T. ) ;
#9 = PRODUCT ( '31294', '31294', '', ( #121 ) ) ;
#10 = AXIS2_PLACEMENT_3D ( 'NONE', #72, #136, #85 ) ;
#11 = DESIGN_CONTEXT ( 'detailed design', #20, 'design' ) ;
#12 = PLANE ( 'NONE',  #91 ) ;
#13 = ADVANCED_FACE ( 'NONE', ( #51, #174 ), #56, .T. ) ;
#14 = LOCAL_TIME ( 15, 34, 20.00000000000000000, #6 ) ;
#15 = CARTESIAN_POINT ( 'NONE',  ( 1.207255516793077719E-15, 0.9499999999999940714, 0.3457717225528948446 ) ) ;
#16 = FACE_OUTER_BOUND ( 'NONE', #131, .T. ) ;
#17 = CARTESIAN_POINT ( 'NONE',  ( 1.316288464743861212E-13, 0.9499999999999940714, 37.69999999999999574 ) ) ;
#18 = APPROVAL_PERSON_ORGANIZATION ( #58, #159, #105 ) ;
#19 = FACE_OUTER_BOUND ( 'NONE', #30, .T. ) ;
#20 = APPLICATION_CONTEXT ( 'configuration controlled 3d designs of mechanical parts and assemblies' ) ;
#21 = DATE_AND_TIME ( #27, #71 ) ;
#22 = EDGE_CURVE ( 'NONE', #148, #148, #39, .T. ) ;
#23 = CC_DESIGN_PERSON_AND_ORGANIZATION_ASSIGNMENT ( #156, #152, ( #79 ) ) ;
#24 = CIRCLE ( 'NONE', #144, 0.9499999999999955147 ) ;
#25 = DIRECTION ( 'NONE',  ( 0.0000000000000000000, 0.0000000000000000000, 1.000000000000000000 ) ) ;
#26 = APPROVAL_PERSON_ORGANIZATION ( #137, #122, #80 ) ;
#27 = CALENDAR_DATE ( 2021, 15, 10 ) ;
#28 = APPROVAL_STATUS ( 'not_yet_approved' ) ;
#29 = MANIFOLD_SOLID_BREP ( 'Corps-Déplacer/Copier1[2]', #163 ) ;
#30 = EDGE_LOOP ( 'NONE', ( #61 ) ) ;
#31 = CC_DESIGN_APPROVAL ( #139, ( #153 ) ) ;
#32 = CARTESIAN_POINT ( 'NONE',  ( 1.326762908760390423E-13, -4.653657836759941941E-15, 38.00000000000000000 ) ) ;
#33 = ADVANCED_FACE ( 'NONE', ( #93 ), #34, .F. ) ;
#34 = PLANE ( 'NONE',  #154 ) ;
#35 = DIRECTION ( 'NONE',  ( 0.0000000000000000000, 1.000000000000000000, 0.0000000000000000000 ) ) ;
#36 = ADVANCED_FACE ( 'NONE', ( #132, #37 ), #68, .T. ) ;
#37 = FACE_OUTER_BOUND ( 'NONE', #177, .T. ) ;
#38 = VERTEX_POINT ( 'NONE', #192 ) ;
#39 = CIRCLE ( 'NONE', #193, 0.9499999999999987343 ) ;
#40 = DIRECTION ( 'NONE',  ( 4.275831445896958607E-31, 1.000000000000000000, 1.224646799147353207E-16 ) ) ;
#41 = CARTESIAN_POINT ( 'NONE',  ( 4.189777606611760026E-14, -1.469576158976823947E-15, 12.00000000000000000 ) ) ;
#42 = CONICAL_SURFACE ( 'NONE', #10, 0.9499999999999940714, 1.221730476396026388 ) ;
#43 = PERSON_AND_ORGANIZATION ( #54, #47 ) ;
#44 = EDGE_CURVE ( 'NONE', #38, #38, #116, .T. ) ;
#45 = DATE_TIME_ROLE ( 'classification_date' ) ;
#46 = DATE_TIME_ROLE ( 'creation_date' ) ;
#47 = ORGANIZATION ( 'UNSPECIFIED', 'UNSPECIFIED', '' ) ;
#48 = DATE_AND_TIME ( #78, #134 ) ;
#49 = EDGE_LOOP ( 'NONE', ( #114 ) ) ;
#50 = ORIENTED_EDGE ( 'NONE', *, *, #113, .T. ) ;
#51 = FACE_OUTER_BOUND ( 'NONE', #111, .T. ) ;
#52 = DIRECTION ( 'NONE',  ( -3.491481338843133355E-15, 1.224646799147353207E-16, -1.000000000000000000 ) ) ;
#53 = CARTESIAN_POINT ( 'NONE',  ( 4.189777606611760026E-14, -1.469576158976823947E-15, 12.00000000000000000 ) ) ;
#54 = PERSON ( 'UNSPECIFIED', 'UNSPECIFIED', 'UNSPECIFIED', ('UNSPECIFIED'), ('UNSPECIFIED'), ('UNSPECIFIED') ) ;
#55 = VERTEX_POINT ( 'NONE', #135 ) ;
#56 = CONICAL_SURFACE ( 'NONE', #82, 0.6499999999999988010, 0.7853981633974453924 ) ;
#57 = CLOSED_SHELL ( 'NONE', ( #33, #74, #13, #138 ) ) ;
#58 = PERSON_AND_ORGANIZATION ( #54, #47 ) ;
#59 = DIRECTION ( 'NONE',  ( 1.000000000000000000, 0.0000000000000000000, 0.0000000000000000000 ) ) ;
#60 = APPROVAL_DATE_TIME ( #48, #159 ) ;
#61 = ORIENTED_EDGE ( 'NONE', *, *, #22, .T. ) ;
#62 = EDGE_CURVE ( 'NONE', #202, #202, #24, .T. ) ;
#63 = CC_DESIGN_PERSON_AND_ORGANIZATION_ASSIGNMENT ( #87, #141, ( #164 ) ) ;
#64 = EDGE_LOOP ( 'NONE', ( #125 ) ) ;
#65 = ORIENTED_EDGE ( 'NONE', *, *, #197, .F. ) ;
#66 = ORIENTED_EDGE ( 'NONE', *, *, #22, .F. ) ;
#67 = CC_DESIGN_APPROVAL ( #122, ( #79 ) ) ;
#68 = CYLINDRICAL_SURFACE ( 'NONE', #198, 0.9499999999999948486 ) ;
#69 = VERTEX_POINT ( 'NONE', #15 ) ;
#70 =( NAMED_UNIT ( * ) PLANE_ANGLE_UNIT ( ) SI_UNIT ( $, .RADIAN. ) );
#71 = LOCAL_TIME ( 15, 34, 20.00000000000000000, #186 ) ;
#72 = CARTESIAN_POINT ( 'NONE',  ( 1.207255516793077324E-15, -4.234482332600691887E-17, 0.3457717225528947336 ) ) ;
#73 = CYLINDRICAL_SURFACE ( 'NONE', #104, 0.9499999999999970690 ) ;
#74 = ADVANCED_FACE ( 'NONE', ( #16, #19 ), #73, .T. ) ;
#75 = SECURITY_CLASSIFICATION_LEVEL ( 'unclassified' ) ;
#76 = CC_DESIGN_APPROVAL ( #159, ( #164 ) ) ;
#77 = DATE_AND_TIME ( #4, #185 ) ;
#78 = CALENDAR_DATE ( 2021, 15, 10 ) ;
#79 = SECURITY_CLASSIFICATION ( '', '', #75 ) ;
#80 = APPROVAL_ROLE ( '' ) ;
#81 = CC_DESIGN_DATE_AND_TIME_ASSIGNMENT ( #5, #46, ( #153 ) ) ;
#82 = AXIS2_PLACEMENT_3D ( 'NONE', #32, #188, #158 ) ;
#83 = CC_DESIGN_SECURITY_CLASSIFICATION ( #79, ( #164 ) ) ;
#84 = DIRECTION ( 'NONE',  ( -4.275831445896958607E-31, -1.000000000000000000, -1.224646799147353207E-16 ) ) ;
#85 = DIRECTION ( 'NONE',  ( -4.054589356604732089E-31, -1.000000000000000000, -1.141265444721590660E-16 ) ) ;
#86 = DIRECTION ( 'NONE',  ( 0.0000000000000000000, 1.000000000000000000, 0.0000000000000000000 ) ) ;
#87 = PERSON_AND_ORGANIZATION ( #54, #47 ) ;
#88 = PERSON_AND_ORGANIZATION ( #54, #47 ) ;
#89 = APPROVAL_STATUS ( 'not_yet_approved' ) ;
#90 = PERSON_AND_ORGANIZATION_ROLE ( 'design_owner' ) ;
#91 = AXIS2_PLACEMENT_3D ( 'NONE', #115, #133, #40 ) ;
#92 = ORIENTED_EDGE ( 'NONE', *, *, #62, .F. ) ;
#93 = FACE_OUTER_BOUND ( 'NONE', #127, .T. ) ;
#94 = ORIENTED_EDGE ( 'NONE', *, *, #44, .T. ) ;
#95 = CARTESIAN_POINT ( 'NONE',  ( 4.189777606611760026E-14, 7.123858967643767531E-33, 12.00000000000000000 ) ) ;
#96 = FACE_OUTER_BOUND ( 'NONE', #49, .T. ) ;
#97 = DIRECTION ( 'NONE',  ( 3.491481338843133355E-15, -1.224646799147353207E-16, 1.000000000000000000 ) ) ;
#98 = AXIS2_PLACEMENT_3D ( 'NONE', #99, #120, #150 ) ;
#99 = CARTESIAN_POINT ( 'NONE',  ( 1.207255516793077324E-15, -4.234482332600691887E-17, 0.3457717225528947336 ) ) ;
#100 = DIRECTION ( 'NONE',  ( 3.491481338843133355E-15, -1.224646799147353207E-16, 1.000000000000000000 ) ) ;
#101 = CALENDAR_DATE ( 2021, 15, 10 ) ;
#102 = APPLICATION_PROTOCOL_DEFINITION ( 'international standard', 'config_control_design', 1994, #194 ) ;
#103 = ADVANCED_FACE ( 'NONE', ( #162 ), #200, .T. ) ;
#104 = AXIS2_PLACEMENT_3D ( 'NONE', #203, #52, #117 ) ;
#105 = APPROVAL_ROLE ( '' ) ;
#106 = PRODUCT_DEFINITION_SHAPE ( 'NONE', 'NONE',  #153 ) ;
#107 = PERSON_AND_ORGANIZATION ( #54, #47 ) ;
#108 = AXIS2_PLACEMENT_3D ( 'NONE', #181, #179, #169 ) ;
#109 = AXIS2_PLACEMENT_3D ( 'NONE', #41, #180, #147 ) ;
#110 = ORIENTED_EDGE ( 'NONE', *, *, #113, .F. ) ;
#111 = EDGE_LOOP ( 'NONE', ( #66 ) ) ;
#112 = DIRECTION ( 'NONE',  ( -3.491481338843133355E-15, 1.224646799147353207E-16, -1.000000000000000000 ) ) ;
#113 = EDGE_CURVE ( 'NONE', #55, #55, #146, .T. ) ;
#114 = ORIENTED_EDGE ( 'NONE', *, *, #44, .F. ) ;
#115 = CARTESIAN_POINT ( 'NONE',  ( 1.326762908760390423E-13, 4.874219293650958539E-33, 38.00000000000000000 ) ) ;
#116 = CIRCLE ( 'NONE', #108, 0.6499999999999988010 ) ;
#117 = DIRECTION ( 'NONE',  ( 4.275831445896957731E-31, 1.000000000000000000, 1.224646799147353207E-16 ) ) ;
#118 = AXIS2_PLACEMENT_3D ( 'NONE', #124, #25, #59 ) ;
#119 = CARTESIAN_POINT ( 'NONE',  ( 0.0000000000000000000, 0.0000000000000000000, 0.0000000000000000000 ) ) ;
#120 = DIRECTION ( 'NONE',  ( -3.491481338843133355E-15, 1.224646799147353207E-16, -1.000000000000000000 ) ) ;
#121 = MECHANICAL_CONTEXT ( 'NONE', #194, 'mechanical' ) ;
#122 = APPROVAL ( #28, 'UNSPECIFIED' ) ;
#123 = SHAPE_DEFINITION_REPRESENTATION ( #106, #142 ) ;
#124 = CARTESIAN_POINT ( 'NONE',  ( 0.0000000000000000000, 0.0000000000000000000, 0.0000000000000000000 ) ) ;
#125 = ORIENTED_EDGE ( 'NONE', *, *, #197, .T. ) ;
#126 =( GEOMETRIC_REPRESENTATION_CONTEXT ( 3 ) GLOBAL_UNCERTAINTY_ASSIGNED_CONTEXT ( ( #176 ) ) GLOBAL_UNIT_ASSIGNED_CONTEXT ( ( #149, #70, #191 ) ) REPRESENTATION_CONTEXT ( 'NONE', 'WORKASPACE' ) );
#127 = EDGE_LOOP ( 'NONE', ( #8 ) ) ;
#128 = CC_DESIGN_PERSON_AND_ORGANIZATION_ASSIGNMENT ( #107, #172, ( #164 ) ) ;
#129 = EDGE_LOOP ( 'NONE', ( #94 ) ) ;
#130 = AXIS2_PLACEMENT_3D ( 'NONE', #168, #97, #84 ) ;
#131 = EDGE_LOOP ( 'NONE', ( #92 ) ) ;
#132 = FACE_OUTER_BOUND ( 'NONE', #175, .T. ) ;
#133 = DIRECTION ( 'NONE',  ( -3.491481338843133355E-15, 1.224646799147353207E-16, -1.000000000000000000 ) ) ;
#134 = LOCAL_TIME ( 15, 34, 20.00000000000000000, #171 ) ;
#135 = CARTESIAN_POINT ( 'NONE',  ( 4.189777606611760026E-14, 0.9499999999999940714, 12.00000000000000000 ) ) ;
#136 = DIRECTION ( 'NONE',  ( 3.491481338843133355E-15, -1.224646799147353207E-16, 1.000000000000000000 ) ) ;
#137 = PERSON_AND_ORGANIZATION ( #54, #47 ) ;
#138 = ADVANCED_FACE ( 'NONE', ( #96 ), #12, .F. ) ;
#139 = APPROVAL ( #89, 'UNSPECIFIED' ) ;
#140 = APPROVAL_STATUS ( 'not_yet_approved' ) ;
#141 = PERSON_AND_ORGANIZATION_ROLE ( 'creator' ) ;
#142 = ADVANCED_BREP_SHAPE_REPRESENTATION ( '31294', ( #167, #29, #118 ), #126 ) ;
#143 = COORDINATED_UNIVERSAL_TIME_OFFSET ( 1, 0, .AHEAD. ) ;
#144 = AXIS2_PLACEMENT_3D ( 'NONE', #53, #189, #86 ) ;
#145 = LOCAL_TIME ( 15, 34, 20.00000000000000000, #155 ) ;
#146 = CIRCLE ( 'NONE', #109, 0.9499999999999955147 ) ;
#147 = DIRECTION ( 'NONE',  ( 0.0000000000000000000, 1.000000000000000000, 0.0000000000000000000 ) ) ;
#148 = VERTEX_POINT ( 'NONE', #17 ) ;
#149 =( LENGTH_UNIT ( ) NAMED_UNIT ( * ) SI_UNIT ( .MILLI., .METRE. ) );
#150 = DIRECTION ( 'NONE',  ( 4.054589356604732089E-31, 1.000000000000000000, 1.141265444721590660E-16 ) ) ;
#151 = DIRECTION ( 'NONE',  ( -3.491481338843133355E-15, 1.224646799147353207E-16, -1.000000000000000000 ) ) ;
#152 = PERSON_AND_ORGANIZATION_ROLE ( 'classification_officer' ) ;
#153 = PRODUCT_DEFINITION ( 'UNKNOWN', '', #164, #11 ) ;
#154 = AXIS2_PLACEMENT_3D ( 'NONE', #95, #100, #178 ) ;
#155 = COORDINATED_UNIVERSAL_TIME_OFFSET ( 1, 0, .AHEAD. ) ;
#156 = PERSON_AND_ORGANIZATION ( #54, #47 ) ;
#157 = PERSON_AND_ORGANIZATION_ROLE ( 'creator' ) ;
#158 = DIRECTION ( 'NONE',  ( 0.0000000000000000000, 1.000000000000000000, 0.0000000000000000000 ) ) ;
#159 = APPROVAL ( #140, 'UNSPECIFIED' ) ;
#160 = CC_DESIGN_DATE_AND_TIME_ASSIGNMENT ( #195, #45, ( #79 ) ) ;
#161 = CARTESIAN_POINT ( 'NONE',  ( 1.316288464743861212E-13, -4.616918432785521081E-15, 37.69999999999999574 ) ) ;
#162 = FACE_OUTER_BOUND ( 'NONE', #7, .T. ) ;
#163 = CLOSED_SHELL ( 'NONE', ( #201, #36, #103 ) ) ;
#164 = PRODUCT_DEFINITION_FORMATION_WITH_SPECIFIED_SOURCE ( 'ANY', '', #9, .NOT_KNOWN. ) ;
#165 = DIRECTION ( 'NONE',  ( 4.275831445896958607E-31, 1.000000000000000000, 1.224646799147352961E-16 ) ) ;
#166 = CARTESIAN_POINT ( 'NONE',  ( 4.189777606611760026E-14, 0.9499999999999940714, 12.00000000000000000 ) ) ;
#167 = MANIFOLD_SOLID_BREP ( 'Corps-Déplacer/Copier1[1]', #57 ) ;
#168 = CARTESIAN_POINT ( 'NONE',  ( 4.189777606611760026E-14, 7.123858967643767531E-33, 12.00000000000000000 ) ) ;
#169 = DIRECTION ( 'NONE',  ( 0.0000000000000000000, 1.000000000000000000, 0.0000000000000000000 ) ) ;
#170 = APPLICATION_PROTOCOL_DEFINITION ( 'international standard', 'config_control_design', 1994, #20 ) ;
#171 = COORDINATED_UNIVERSAL_TIME_OFFSET ( 1, 0, .AHEAD. ) ;
#172 = PERSON_AND_ORGANIZATION_ROLE ( 'design_supplier' ) ;
#173 = APPROVAL_PERSON_ORGANIZATION ( #43, #139, #2 ) ;
#174 = FACE_BOUND ( 'NONE', #129, .T. ) ;
#175 = EDGE_LOOP ( 'NONE', ( #65 ) ) ;
#176 = UNCERTAINTY_MEASURE_WITH_UNIT (LENGTH_MEASURE( 1.000000000000000082E-05 ), #149, 'distance_accuracy_value', 'NONE');
#177 = EDGE_LOOP ( 'NONE', ( #50 ) ) ;
#178 = DIRECTION ( 'NONE',  ( -4.275831445896958607E-31, -1.000000000000000000, -1.224646799147353207E-16 ) ) ;
#179 = DIRECTION ( 'NONE',  ( -3.491481338843133355E-15, 1.224646799147353207E-16, -1.000000000000000000 ) ) ;
#180 = DIRECTION ( 'NONE',  ( -3.491481338843133355E-15, 1.224646799147353207E-16, -1.000000000000000000 ) ) ;
#181 = CARTESIAN_POINT ( 'NONE',  ( 1.326762908760390423E-13, -4.653657836759941941E-15, 38.00000000000000000 ) ) ;
#182 = PERSON_AND_ORGANIZATION ( #54, #47 ) ;
#183 = CALENDAR_DATE ( 2021, 15, 10 ) ;
#184 = APPROVAL_DATE_TIME ( #21, #139 ) ;
#185 = LOCAL_TIME ( 15, 34, 20.00000000000000000, #143 ) ;
#186 = COORDINATED_UNIVERSAL_TIME_OFFSET ( 1, 0, .AHEAD. ) ;
#187 = CC_DESIGN_PERSON_AND_ORGANIZATION_ASSIGNMENT ( #182, #90, ( #9 ) ) ;
#188 = DIRECTION ( 'NONE',  ( -3.491481338843133355E-15, 1.224646799147353207E-16, -1.000000000000000000 ) ) ;
#189 = DIRECTION ( 'NONE',  ( -3.491481338843133355E-15, 1.224646799147353207E-16, -1.000000000000000000 ) ) ;
#190 = CC_DESIGN_PERSON_AND_ORGANIZATION_ASSIGNMENT ( #88, #157, ( #153 ) ) ;
#191 =( NAMED_UNIT ( * ) SI_UNIT ( $, .STERADIAN. ) SOLID_ANGLE_UNIT ( ) );
#192 = CARTESIAN_POINT ( 'NONE',  ( 1.326762908760390423E-13, 0.6499999999999941380, 38.00000000000000000 ) ) ;
#193 = AXIS2_PLACEMENT_3D ( 'NONE', #161, #112, #35 ) ;
#194 = APPLICATION_CONTEXT ( 'configuration controlled 3d designs of mechanical parts and assemblies' ) ;
#195 = DATE_AND_TIME ( #183, #145 ) ;
#196 = APPROVAL_DATE_TIME ( #77, #122 ) ;
#197 = EDGE_CURVE ( 'NONE', #69, #69, #199, .T. ) ;
#198 = AXIS2_PLACEMENT_3D ( 'NONE', #119, #151, #165 ) ;
#199 = CIRCLE ( 'NONE', #98, 0.9499999999999940714 ) ;
#200 = PLANE ( 'NONE',  #130 ) ;
#201 = ADVANCED_FACE ( 'NONE', ( #1 ), #42, .T. ) ;
#202 = VERTEX_POINT ( 'NONE', #166 ) ;
#203 = CARTESIAN_POINT ( 'NONE',  ( 0.0000000000000000000, 0.0000000000000000000, 0.0000000000000000000 ) ) ;
ENDSEC;
END-ISO-10303-21;
