ISO-10303-21;
HEADER;
FILE_DESCRIPTION (( 'STEP AP203' ),
    '1' );
FILE_NAME ('312243.step',
    '2021-11-25T06:47:04',
    ( '' ),
    ( '' ),
    'SwSTEP 2.0',
    'SolidWorks 2019',
    '' );
FILE_SCHEMA (( 'CONFIG_CONTROL_DESIGN' ));
ENDSEC;

DATA;
#1 = CARTESIAN_POINT ( 'NONE',  ( 3.023711536277440429E-15, 2.452584557159372797E-32, 0.8660254037844339337 ) ) ;
#2 = FACE_BOUND ( 'NONE', #55, .T. ) ;
#3 = COORDINATED_UNIVERSAL_TIME_OFFSET ( 1, 0, .AHEAD. ) ;
#4 = LOCAL_TIME ( 7, 47, 4.000000000000000000, #98 ) ;
#5 = PERSON_AND_ORGANIZATION ( #116, #152 ) ;
#6 =( LENGTH_UNIT ( ) NAMED_UNIT ( * ) SI_UNIT ( .MILLI., .METRE. ) );
#7 = CALENDAR_DATE ( 2021, 25, 11 ) ;
#8 = CC_DESIGN_PERSON_AND_ORGANIZATION_ASSIGNMENT ( #111, #112, ( #66 ) ) ;
#9 = ORIENTED_EDGE ( 'NONE', *, *, #100, .F. ) ;
#10 = CC_DESIGN_APPROVAL ( #110, ( #66 ) ) ;
#11 = EDGE_LOOP ( 'NONE', ( #39 ) ) ;
#12 = DIRECTION ( 'NONE',  ( 4.275831445896958607E-31, 1.000000000000000000, 1.224646799147353454E-16 ) ) ;
#13 = ORIENTED_EDGE ( 'NONE', *, *, #122, .F. ) ;
#14 = CIRCLE ( 'NONE', #23, 1.499999999999998890 ) ;
#15 = DIRECTION ( 'NONE',  ( 4.275831445896958607E-31, 1.000000000000000000, 1.224646799147353207E-16 ) ) ;
#16 = EDGE_LOOP ( 'NONE', ( #179 ) ) ;
#17 = DATE_AND_TIME ( #92, #43 ) ;
#18 = MECHANICAL_CONTEXT ( 'NONE', #61, 'mechanical' ) ;
#19 = APPROVAL_ROLE ( '' ) ;
#20 = AXIS2_PLACEMENT_3D ( 'NONE', #81, #78, #175 ) ;
#21 = ORIENTED_EDGE ( 'NONE', *, *, #122, .T. ) ;
#22 = ADVANCED_FACE ( 'NONE', ( #142 ), #83, .T. ) ;
#23 = AXIS2_PLACEMENT_3D ( 'NONE', #72, #45, #91 ) ;
#24 = DIRECTION ( 'NONE',  ( -3.491481338843133355E-15, 1.224646799147353207E-16, -1.000000000000000000 ) ) ;
#25 = DIRECTION ( 'NONE',  ( -3.491481338843133355E-15, 1.224646799147353207E-16, -1.000000000000000000 ) ) ;
#26 = CARTESIAN_POINT ( 'NONE',  ( 1.316288464743861212E-13, 1.499999999999994449, 37.69999999999999574 ) ) ;
#27 = DIRECTION ( 'NONE',  ( -3.491481338843133355E-15, 1.224646799147353207E-16, -1.000000000000000000 ) ) ;
#28 = CC_DESIGN_DATE_AND_TIME_ASSIGNMENT ( #51, #145, ( #66 ) ) ;
#29 = DIRECTION ( 'NONE',  ( -4.275831445896958607E-31, -1.000000000000000000, -1.224646799147353207E-16 ) ) ;
#30 = PERSON_AND_ORGANIZATION ( #116, #152 ) ;
#31 = ADVANCED_FACE ( 'NONE', ( #87 ), #121, .F. ) ;
#32 = PERSON_AND_ORGANIZATION ( #116, #152 ) ;
#33 = CALENDAR_DATE ( 2021, 25, 11 ) ;
#34 = CC_DESIGN_APPROVAL ( #73, ( #162 ) ) ;
#35 =( NAMED_UNIT ( * ) SI_UNIT ( $, .STERADIAN. ) SOLID_ANGLE_UNIT ( ) );
#36 = ADVANCED_BREP_SHAPE_REPRESENTATION ( '312243', ( #109, #42, #20 ), #169 ) ;
#37 = CC_DESIGN_PERSON_AND_ORGANIZATION_ASSIGNMENT ( #173, #128, ( #162 ) ) ;
#38 = ORIENTED_EDGE ( 'NONE', *, *, #100, .T. ) ;
#39 = ORIENTED_EDGE ( 'NONE', *, *, #139, .T. ) ;
#40 = ADVANCED_FACE ( 'NONE', ( #76 ), #123, .F. ) ;
#41 = DIRECTION ( 'NONE',  ( 5.135813185032630401E-31, 1.000000000000000000, 1.445602896647339656E-16 ) ) ;
#42 = MANIFOLD_SOLID_BREP ( 'Corps-Déplacer/Copier1[2]', #47 ) ;
#43 = LOCAL_TIME ( 7, 47, 4.000000000000000000, #82 ) ;
#44 = ORIENTED_EDGE ( 'NONE', *, *, #137, .F. ) ;
#45 = DIRECTION ( 'NONE',  ( -3.491481338843133355E-15, 1.224646799147353207E-16, -1.000000000000000000 ) ) ;
#46 = CARTESIAN_POINT ( 'NONE',  ( 1.326762908760390423E-13, 8.998558695971082698E-33, 38.00000000000000000 ) ) ;
#47 = CLOSED_SHELL ( 'NONE', ( #22, #68 ) ) ;
#48 = CC_DESIGN_SECURITY_CLASSIFICATION ( #140, ( #162 ) ) ;
#49 = FACE_OUTER_BOUND ( 'NONE', #75, .T. ) ;
#50 = APPROVAL_STATUS ( 'not_yet_approved' ) ;
#51 = DATE_AND_TIME ( #84, #4 ) ;
#52 = CC_DESIGN_PERSON_AND_ORGANIZATION_ASSIGNMENT ( #32, #135, ( #162 ) ) ;
#53 = AXIS2_PLACEMENT_3D ( 'NONE', #46, #107, #15 ) ;
#54 = PRODUCT_RELATED_PRODUCT_CATEGORY ( 'detail', '', ( #96 ) ) ;
#55 = EDGE_LOOP ( 'NONE', ( #38 ) ) ;
#56 = PRODUCT_DEFINITION_SHAPE ( 'NONE', 'NONE',  #66 ) ;
#57 = CARTESIAN_POINT ( 'NONE',  ( 0.0000000000000000000, 0.0000000000000000000, 0.0000000000000000000 ) ) ;
#58 = CONICAL_SURFACE ( 'NONE', #94, 1.499999999999998890, 0.7853981633974425058 ) ;
#59 = VERTEX_POINT ( 'NONE', #26 ) ;
#60 = CARTESIAN_POINT ( 'NONE',  ( 3.023711536277440429E-15, 1.499999999999999556, 0.8660254037844339337 ) ) ;
#61 = APPLICATION_CONTEXT ( 'configuration controlled 3d designs of mechanical parts and assemblies' ) ;
#62 = DIRECTION ( 'NONE',  ( 0.0000000000000000000, 1.000000000000000000, 0.0000000000000000000 ) ) ;
#63 = EDGE_LOOP ( 'NONE', ( #101 ) ) ;
#64 = APPROVAL_STATUS ( 'not_yet_approved' ) ;
#65 = APPROVAL_ROLE ( '' ) ;
#66 = PRODUCT_DEFINITION ( 'UNKNOWN', '', #162, #99 ) ;
#67 = DATE_AND_TIME ( #7, #151 ) ;
#68 = ADVANCED_FACE ( 'NONE', ( #153 ), #156, .T. ) ;
#69 = APPLICATION_CONTEXT ( 'configuration controlled 3d designs of mechanical parts and assemblies' ) ;
#70 = APPROVAL_PERSON_ORGANIZATION ( #30, #180, #19 ) ;
#71 = CARTESIAN_POINT ( 'NONE',  ( 3.023711536277440429E-15, 2.452584557159372797E-32, 0.8660254037844339337 ) ) ;
#72 = CARTESIAN_POINT ( 'NONE',  ( 1.316288464743861212E-13, -4.616918432785521081E-15, 37.69999999999999574 ) ) ;
#73 = APPROVAL ( #64, 'UNSPECIFIED' ) ;
#74 = APPROVAL_PERSON_ORGANIZATION ( #150, #110, #65 ) ;
#75 = EDGE_LOOP ( 'NONE', ( #44 ) ) ;
#76 = FACE_OUTER_BOUND ( 'NONE', #115, .T. ) ;
#77 = CARTESIAN_POINT ( 'NONE',  ( 3.023711536277439640E-15, -1.060575238724900875E-16, 0.8660254037844337116 ) ) ;
#78 = DIRECTION ( 'NONE',  ( 0.0000000000000000000, 0.0000000000000000000, 1.000000000000000000 ) ) ;
#79 = CIRCLE ( 'NONE', #102, 1.499999999999999556 ) ;
#80 = AXIS2_PLACEMENT_3D ( 'NONE', #57, #27, #12 ) ;
#81 = CARTESIAN_POINT ( 'NONE',  ( 0.0000000000000000000, 0.0000000000000000000, 0.0000000000000000000 ) ) ;
#82 = COORDINATED_UNIVERSAL_TIME_OFFSET ( 1, 0, .AHEAD. ) ;
#83 = CONICAL_SURFACE ( 'NONE', #157, 1732.050807568886512, 1.047197551196600074 ) ;
#84 = CALENDAR_DATE ( 2021, 25, 11 ) ;
#85 = CC_DESIGN_APPROVAL ( #180, ( #140 ) ) ;
#86 = CC_DESIGN_PERSON_AND_ORGANIZATION_ASSIGNMENT ( #127, #160, ( #96 ) ) ;
#87 = FACE_OUTER_BOUND ( 'NONE', #16, .T. ) ;
#88 = DIRECTION ( 'NONE',  ( 0.0000000000000000000, 1.000000000000000000, 0.0000000000000000000 ) ) ;
#89 = EDGE_LOOP ( 'NONE', ( #21 ) ) ;
#90 = EDGE_LOOP ( 'NONE', ( #13 ) ) ;
#91 = DIRECTION ( 'NONE',  ( 0.0000000000000000000, 1.000000000000000000, 0.0000000000000000000 ) ) ;
#92 = CALENDAR_DATE ( 2021, 25, 11 ) ;
#93 =( NAMED_UNIT ( * ) PLANE_ANGLE_UNIT ( ) SI_UNIT ( $, .RADIAN. ) );
#94 = AXIS2_PLACEMENT_3D ( 'NONE', #168, #103, #88 ) ;
#95 = LOCAL_TIME ( 7, 47, 4.000000000000000000, #108 ) ;
#96 = PRODUCT ( '312243', '312243', '', ( #18 ) ) ;
#97 = PERSON_AND_ORGANIZATION ( #116, #152 ) ;
#98 = COORDINATED_UNIVERSAL_TIME_OFFSET ( 1, 0, .AHEAD. ) ;
#99 = DESIGN_CONTEXT ( 'detailed design', #69, 'design' ) ;
#100 = EDGE_CURVE ( 'NONE', #183, #183, #113, .T. ) ;
#101 = ORIENTED_EDGE ( 'NONE', *, *, #139, .F. ) ;
#102 = AXIS2_PLACEMENT_3D ( 'NONE', #117, #170, #41 ) ;
#103 = DIRECTION ( 'NONE',  ( -3.491481338843133355E-15, 1.224646799147353207E-16, -1.000000000000000000 ) ) ;
#104 = CARTESIAN_POINT ( 'NONE',  ( 1.326762908760390423E-13, 1.199999999999996181, 38.00000000000000000 ) ) ;
#105 = FACE_OUTER_BOUND ( 'NONE', #89, .T. ) ;
#106 = AXIS2_PLACEMENT_3D ( 'NONE', #132, #25, #62 ) ;
#107 = DIRECTION ( 'NONE',  ( -3.491481338843133355E-15, 1.224646799147353207E-16, -1.000000000000000000 ) ) ;
#108 = COORDINATED_UNIVERSAL_TIME_OFFSET ( 1, 0, .AHEAD. ) ;
#109 = MANIFOLD_SOLID_BREP ( 'Corps-Déplacer/Copier1[1]', #136 ) ;
#110 = APPROVAL ( #50, 'UNSPECIFIED' ) ;
#111 = PERSON_AND_ORGANIZATION ( #116, #152 ) ;
#112 = PERSON_AND_ORGANIZATION_ROLE ( 'creator' ) ;
#113 = CIRCLE ( 'NONE', #106, 1.200000000000000844 ) ;
#114 = SHAPE_DEFINITION_REPRESENTATION ( #56, #36 ) ;
#115 = EDGE_LOOP ( 'NONE', ( #9 ) ) ;
#116 = PERSON ( 'UNSPECIFIED', 'UNSPECIFIED', 'UNSPECIFIED', ('UNSPECIFIED'), ('UNSPECIFIED'), ('UNSPECIFIED') ) ;
#117 = CARTESIAN_POINT ( 'NONE',  ( 3.023711536277439640E-15, -1.060575238724900875E-16, 0.8660254037844337116 ) ) ;
#118 = CARTESIAN_POINT ( 'NONE',  ( 3.491481338843133254E-12, -1.224646799147353249E-13, 1000.000000000000000 ) ) ;
#119 = APPROVAL_PERSON_ORGANIZATION ( #5, #73, #138 ) ;
#120 = VERTEX_POINT ( 'NONE', #171 ) ;
#121 = PLANE ( 'NONE',  #174 ) ;
#122 = EDGE_CURVE ( 'NONE', #59, #59, #14, .T. ) ;
#123 = PLANE ( 'NONE',  #53 ) ;
#124 = SECURITY_CLASSIFICATION_LEVEL ( 'unclassified' ) ;
#125 = CALENDAR_DATE ( 2021, 25, 11 ) ;
#126 = LOCAL_TIME ( 7, 47, 4.000000000000000000, #3 ) ;
#127 = PERSON_AND_ORGANIZATION ( #116, #152 ) ;
#128 = PERSON_AND_ORGANIZATION_ROLE ( 'creator' ) ;
#129 = FACE_OUTER_BOUND ( 'NONE', #90, .T. ) ;
#130 = DIRECTION ( 'NONE',  ( -4.554490559825206315E-31, -1.000000000000000000, -1.281975124255702555E-16 ) ) ;
#131 = ADVANCED_FACE ( 'NONE', ( #105, #49 ), #182, .T. ) ;
#132 = CARTESIAN_POINT ( 'NONE',  ( 1.326762908760390423E-13, -4.653657836759941941E-15, 38.00000000000000000 ) ) ;
#133 = DIRECTION ( 'NONE',  ( 5.135813185032630401E-31, 1.000000000000000000, 1.445602896647339656E-16 ) ) ;
#134 = DATE_TIME_ROLE ( 'classification_date' ) ;
#135 = PERSON_AND_ORGANIZATION_ROLE ( 'design_supplier' ) ;
#136 = CLOSED_SHELL ( 'NONE', ( #31, #131, #149, #40 ) ) ;
#137 = EDGE_CURVE ( 'NONE', #143, #143, #154, .T. ) ;
#138 = APPROVAL_ROLE ( '' ) ;
#139 = EDGE_CURVE ( 'NONE', #120, #120, #79, .T. ) ;
#140 = SECURITY_CLASSIFICATION ( '', '', #124 ) ;
#141 = DIRECTION ( 'NONE',  ( 3.491481338843133355E-15, -1.224646799147353207E-16, 1.000000000000000000 ) ) ;
#142 = FACE_OUTER_BOUND ( 'NONE', #11, .T. ) ;
#143 = VERTEX_POINT ( 'NONE', #60 ) ;
#144 = DIRECTION ( 'NONE',  ( -4.275831445896958607E-31, -1.000000000000000000, -1.224646799147353207E-16 ) ) ;
#145 = DATE_TIME_ROLE ( 'creation_date' ) ;
#146 = APPROVAL_DATE_TIME ( #165, #110 ) ;
#147 = APPROVAL_STATUS ( 'not_yet_approved' ) ;
#148 = DATE_AND_TIME ( #33, #95 ) ;
#149 = ADVANCED_FACE ( 'NONE', ( #2, #129 ), #58, .T. ) ;
#150 = PERSON_AND_ORGANIZATION ( #116, #152 ) ;
#151 = LOCAL_TIME ( 7, 47, 4.000000000000000000, #163 ) ;
#152 = ORGANIZATION ( 'UNSPECIFIED', 'UNSPECIFIED', '' ) ;
#153 = FACE_OUTER_BOUND ( 'NONE', #63, .T. ) ;
#154 = CIRCLE ( 'NONE', #178, 1.499999999999999556 ) ;
#155 = DIRECTION ( 'NONE',  ( 3.491481338843133355E-15, -1.224646799147353207E-16, 1.000000000000000000 ) ) ;
#156 = PLANE ( 'NONE',  #181 ) ;
#157 = AXIS2_PLACEMENT_3D ( 'NONE', #118, #155, #130 ) ;
#158 = CC_DESIGN_PERSON_AND_ORGANIZATION_ASSIGNMENT ( #97, #177, ( #140 ) ) ;
#159 = APPLICATION_PROTOCOL_DEFINITION ( 'international standard', 'config_control_design', 1994, #69 ) ;
#160 = PERSON_AND_ORGANIZATION_ROLE ( 'design_owner' ) ;
#161 = APPROVAL_DATE_TIME ( #67, #73 ) ;
#162 = PRODUCT_DEFINITION_FORMATION_WITH_SPECIFIED_SOURCE ( 'ANY', '', #96, .NOT_KNOWN. ) ;
#163 = COORDINATED_UNIVERSAL_TIME_OFFSET ( 1, 0, .AHEAD. ) ;
#164 = CC_DESIGN_DATE_AND_TIME_ASSIGNMENT ( #148, #134, ( #140 ) ) ;
#165 = DATE_AND_TIME ( #125, #126 ) ;
#166 = UNCERTAINTY_MEASURE_WITH_UNIT (LENGTH_MEASURE( 1.000000000000000082E-05 ), #6, 'distance_accuracy_value', 'NONE');
#167 = APPROVAL_DATE_TIME ( #17, #180 ) ;
#168 = CARTESIAN_POINT ( 'NONE',  ( 1.316288464743861212E-13, -4.616918432785521081E-15, 37.69999999999999574 ) ) ;
#169 =( GEOMETRIC_REPRESENTATION_CONTEXT ( 3 ) GLOBAL_UNCERTAINTY_ASSIGNED_CONTEXT ( ( #166 ) ) GLOBAL_UNIT_ASSIGNED_CONTEXT ( ( #6, #93, #35 ) ) REPRESENTATION_CONTEXT ( 'NONE', 'WORKASPACE' ) );
#170 = DIRECTION ( 'NONE',  ( -3.491481338843133355E-15, 1.224646799147353207E-16, -1.000000000000000000 ) ) ;
#171 = CARTESIAN_POINT ( 'NONE',  ( 3.023711536277440429E-15, 1.499999999999999556, 0.8660254037844339337 ) ) ;
#172 = DIRECTION ( 'NONE',  ( 3.491481338843133355E-15, -1.224646799147353207E-16, 1.000000000000000000 ) ) ;
#173 = PERSON_AND_ORGANIZATION ( #116, #152 ) ;
#174 = AXIS2_PLACEMENT_3D ( 'NONE', #1, #141, #144 ) ;
#175 = DIRECTION ( 'NONE',  ( 1.000000000000000000, 0.0000000000000000000, 0.0000000000000000000 ) ) ;
#176 = APPLICATION_PROTOCOL_DEFINITION ( 'international standard', 'config_control_design', 1994, #61 ) ;
#177 = PERSON_AND_ORGANIZATION_ROLE ( 'classification_officer' ) ;
#178 = AXIS2_PLACEMENT_3D ( 'NONE', #77, #24, #133 ) ;
#179 = ORIENTED_EDGE ( 'NONE', *, *, #137, .T. ) ;
#180 = APPROVAL ( #147, 'UNSPECIFIED' ) ;
#181 = AXIS2_PLACEMENT_3D ( 'NONE', #71, #172, #29 ) ;
#182 = CYLINDRICAL_SURFACE ( 'NONE', #80, 1.499999999999999112 ) ;
#183 = VERTEX_POINT ( 'NONE', #104 ) ;
ENDSEC;
END-ISO-10303-21;
