ISO-10303-21;
HEADER;
FILE_DESCRIPTION (( 'STEP AP203' ),
    '1' );
FILE_NAME ('31197.step',
    '2021-10-15T13:34:19',
    ( '' ),
    ( '' ),
    'SwSTEP 2.0',
    'SolidWorks 2019',
    '' );
FILE_SCHEMA (( 'CONFIG_CONTROL_DESIGN' ));
ENDSEC;

DATA;
#1 = PERSON_AND_ORGANIZATION ( #50, #75 ) ;
#2 = DIRECTION ( 'NONE',  ( 3.491481338843133355E-15, -1.224646799147353207E-16, 1.000000000000000000 ) ) ;
#3 = PLANE ( 'NONE',  #17 ) ;
#4 = EDGE_LOOP ( 'NONE', ( #194 ) ) ;
#5 = AXIS2_PLACEMENT_3D ( 'NONE', #195, #169, #185 ) ;
#6 =( NAMED_UNIT ( * ) SI_UNIT ( $, .STERADIAN. ) SOLID_ANGLE_UNIT ( ) );
#7 = DIRECTION ( 'NONE',  ( -3.491481338843133355E-15, 1.224646799147353207E-16, -1.000000000000000000 ) ) ;
#8 = VERTEX_POINT ( 'NONE', #57 ) ;
#9 = DIRECTION ( 'NONE',  ( -3.491481338843133355E-15, 1.224646799147353207E-16, -1.000000000000000000 ) ) ;
#10 = DIRECTION ( 'NONE',  ( -3.491481338843133355E-15, 1.224646799147353207E-16, -1.000000000000000000 ) ) ;
#11 = AXIS2_PLACEMENT_3D ( 'NONE', #198, #109, #44 ) ;
#12 = EDGE_CURVE ( 'NONE', #98, #98, #192, .T. ) ;
#13 = CALENDAR_DATE ( 2021, 15, 10 ) ;
#14 = PRODUCT ( '31197', '31197', '', ( #189 ) ) ;
#15 = AXIS2_PLACEMENT_3D ( 'NONE', #132, #7, #155 ) ;
#16 = PERSON_AND_ORGANIZATION ( #50, #75 ) ;
#17 = AXIS2_PLACEMENT_3D ( 'NONE', #68, #2, #67 ) ;
#18 = CC_DESIGN_PERSON_AND_ORGANIZATION_ASSIGNMENT ( #16, #99, ( #153 ) ) ;
#19 = ORIENTED_EDGE ( 'NONE', *, *, #131, .T. ) ;
#20 = EDGE_LOOP ( 'NONE', ( #120 ) ) ;
#21 = SECURITY_CLASSIFICATION ( '', '', #86 ) ;
#22 = UNCERTAINTY_MEASURE_WITH_UNIT (LENGTH_MEASURE( 1.000000000000000082E-05 ), #112, 'distance_accuracy_value', 'NONE');
#23 = FACE_OUTER_BOUND ( 'NONE', #4, .T. ) ;
#24 = CARTESIAN_POINT ( 'NONE',  ( 6.284666409917638777E-14, -2.204364238465235033E-15, 17.99999999999999645 ) ) ;
#25 = AXIS2_PLACEMENT_3D ( 'NONE', #111, #26, #165 ) ;
#26 = DIRECTION ( 'NONE',  ( -3.491481338843133355E-15, 1.224646799147353207E-16, -1.000000000000000000 ) ) ;
#27 = MANIFOLD_SOLID_BREP ( 'Corps-Déplacer/Copier1[2]', #184 ) ;
#28 = CARTESIAN_POINT ( 'NONE',  ( 1.710825856033135470E-13, -6.000769315822030937E-15, 49.00000000000000000 ) ) ;
#29 = PERSON_AND_ORGANIZATION ( #50, #75 ) ;
#30 = COORDINATED_UNIVERSAL_TIME_OFFSET ( 1, 0, .AHEAD. ) ;
#31 = PRODUCT_DEFINITION_SHAPE ( 'NONE', 'NONE',  #114 ) ;
#32 = APPLICATION_CONTEXT ( 'configuration controlled 3d designs of mechanical parts and assemblies' ) ;
#33 = PERSON_AND_ORGANIZATION ( #50, #75 ) ;
#34 = PERSON_AND_ORGANIZATION_ROLE ( 'creator' ) ;
#35 = CONICAL_SURFACE ( 'NONE', #52, 1.549999999999987166, 1.221730476396026388 ) ;
#36 = MANIFOLD_SOLID_BREP ( 'Corps-Déplacer/Copier1[1]', #102 ) ;
#37 =( GEOMETRIC_REPRESENTATION_CONTEXT ( 3 ) GLOBAL_UNCERTAINTY_ASSIGNED_CONTEXT ( ( #22 ) ) GLOBAL_UNIT_ASSIGNED_CONTEXT ( ( #112, #58, #6 ) ) REPRESENTATION_CONTEXT ( 'NONE', 'WORKASPACE' ) );
#38 = ORIENTED_EDGE ( 'NONE', *, *, #12, .T. ) ;
#39 = DESIGN_CONTEXT ( 'detailed design', #32, 'design' ) ;
#40 = DIRECTION ( 'NONE',  ( -3.491481338843133355E-15, 1.224646799147353207E-16, -1.000000000000000000 ) ) ;
#41 = CYLINDRICAL_SURFACE ( 'NONE', #25, 1.549999999999991163 ) ;
#42 = CC_DESIGN_PERSON_AND_ORGANIZATION_ASSIGNMENT ( #143, #46, ( #21 ) ) ;
#43 = DIRECTION ( 'NONE',  ( 0.0000000000000000000, 1.000000000000000000, 0.0000000000000000000 ) ) ;
#44 = DIRECTION ( 'NONE',  ( -4.275831445896958607E-31, -1.000000000000000000, -1.224646799147353207E-16 ) ) ;
#45 = CARTESIAN_POINT ( 'NONE',  ( 1.969732685293965536E-15, 1.549999999999987166, 0.5641538631126169490 ) ) ;
#46 = PERSON_AND_ORGANIZATION_ROLE ( 'classification_officer' ) ;
#47 = APPROVAL_DATE_TIME ( #61, #197 ) ;
#48 = AXIS2_PLACEMENT_3D ( 'NONE', #28, #181, #43 ) ;
#49 = APPLICATION_PROTOCOL_DEFINITION ( 'international standard', 'config_control_design', 1994, #32 ) ;
#50 = PERSON ( 'UNSPECIFIED', 'UNSPECIFIED', 'UNSPECIFIED', ('UNSPECIFIED'), ('UNSPECIFIED'), ('UNSPECIFIED') ) ;
#51 = DATE_TIME_ROLE ( 'classification_date' ) ;
#52 = AXIS2_PLACEMENT_3D ( 'NONE', #59, #150, #72 ) ;
#53 = EDGE_LOOP ( 'NONE', ( #123 ) ) ;
#54 = CC_DESIGN_APPROVAL ( #104, ( #21 ) ) ;
#55 = CARTESIAN_POINT ( 'NONE',  ( 6.284666409917638777E-14, 1.549999999999987166, 17.99999999999999645 ) ) ;
#56 = CC_DESIGN_PERSON_AND_ORGANIZATION_ASSIGNMENT ( #158, #66, ( #153 ) ) ;
#57 = CARTESIAN_POINT ( 'NONE',  ( 6.284666409917638777E-14, 1.549999999999987166, 17.99999999999999645 ) ) ;
#58 =( NAMED_UNIT ( * ) PLANE_ANGLE_UNIT ( ) SI_UNIT ( $, .RADIAN. ) );
#59 = CARTESIAN_POINT ( 'NONE',  ( 1.969732685293964747E-15, -6.908892226874801532E-17, 0.5641538631126167269 ) ) ;
#60 = CIRCLE ( 'NONE', #5, 1.549999999999989386 ) ;
#61 = DATE_AND_TIME ( #186, #97 ) ;
#62 = APPROVAL_DATE_TIME ( #201, #104 ) ;
#63 = APPROVAL_PERSON_ORGANIZATION ( #156, #197, #65 ) ;
#64 = PRODUCT_RELATED_PRODUCT_CATEGORY ( 'detail', '', ( #14 ) ) ;
#65 = APPROVAL_ROLE ( '' ) ;
#66 = PERSON_AND_ORGANIZATION_ROLE ( 'creator' ) ;
#67 = DIRECTION ( 'NONE',  ( -4.275831445896958607E-31, -1.000000000000000000, -1.224646799147353207E-16 ) ) ;
#68 = CARTESIAN_POINT ( 'NONE',  ( 6.284666409917638777E-14, 1.162313831562928151E-32, 17.99999999999999645 ) ) ;
#69 = ORIENTED_EDGE ( 'NONE', *, *, #177, .T. ) ;
#70 = EDGE_LOOP ( 'NONE', ( #130 ) ) ;
#71 = EDGE_LOOP ( 'NONE', ( #69 ) ) ;
#72 = DIRECTION ( 'NONE',  ( -4.970141791967101175E-31, -1.000000000000000000, -1.398970545142597881E-16 ) ) ;
#73 = ADVANCED_FACE ( 'NONE', ( #144 ), #3, .T. ) ;
#74 = VERTEX_POINT ( 'NONE', #78 ) ;
#75 = ORGANIZATION ( 'UNSPECIFIED', 'UNSPECIFIED', '' ) ;
#76 = FACE_BOUND ( 'NONE', #148, .T. ) ;
#77 = FACE_OUTER_BOUND ( 'NONE', #162, .T. ) ;
#78 = CARTESIAN_POINT ( 'NONE',  ( 1.710825856033135470E-13, 1.149999999999987921, 49.00000000000000000 ) ) ;
#79 = EDGE_CURVE ( 'NONE', #108, #108, #168, .T. ) ;
#80 = APPROVAL_PERSON_ORGANIZATION ( #33, #104, #139 ) ;
#81 = DATE_AND_TIME ( #85, #174 ) ;
#82 = DATE_AND_TIME ( #129, #89 ) ;
#83 = CC_DESIGN_DATE_AND_TIME_ASSIGNMENT ( #160, #199, ( #114 ) ) ;
#84 = CC_DESIGN_SECURITY_CLASSIFICATION ( #21, ( #153 ) ) ;
#85 = CALENDAR_DATE ( 2021, 15, 10 ) ;
#86 = SECURITY_CLASSIFICATION_LEVEL ( 'unclassified' ) ;
#87 = DIRECTION ( 'NONE',  ( 0.0000000000000000000, 1.000000000000000000, 0.0000000000000000000 ) ) ;
#88 = EDGE_LOOP ( 'NONE', ( #147 ) ) ;
#89 = LOCAL_TIME ( 15, 34, 19.00000000000000000, #30 ) ;
#90 = ADVANCED_FACE ( 'NONE', ( #154 ), #35, .T. ) ;
#91 = ADVANCED_BREP_SHAPE_REPRESENTATION ( '31197', ( #36, #27, #140 ), #37 ) ;
#92 = APPROVAL_PERSON_ORGANIZATION ( #29, #200, #116 ) ;
#93 = DIRECTION ( 'NONE',  ( 4.275831445896958607E-31, 1.000000000000000000, 1.224646799147352961E-16 ) ) ;
#94 = EDGE_CURVE ( 'NONE', #74, #74, #137, .T. ) ;
#95 = CARTESIAN_POINT ( 'NONE',  ( 1.696859930677762937E-13, 1.549999999999987166, 48.60000000000000142 ) ) ;
#96 = DIRECTION ( 'NONE',  ( 0.0000000000000000000, 1.000000000000000000, 0.0000000000000000000 ) ) ;
#97 = LOCAL_TIME ( 15, 34, 19.00000000000000000, #100 ) ;
#98 = VERTEX_POINT ( 'NONE', #95 ) ;
#99 = PERSON_AND_ORGANIZATION_ROLE ( 'design_supplier' ) ;
#100 = COORDINATED_UNIVERSAL_TIME_OFFSET ( 1, 0, .AHEAD. ) ;
#101 = ADVANCED_FACE ( 'NONE', ( #182, #76 ), #161, .T. ) ;
#102 = CLOSED_SHELL ( 'NONE', ( #121, #172, #101, #180 ) ) ;
#103 = COORDINATED_UNIVERSAL_TIME_OFFSET ( 1, 0, .AHEAD. ) ;
#104 = APPROVAL ( #191, 'UNSPECIFIED' ) ;
#105 = EDGE_LOOP ( 'NONE', ( #38 ) ) ;
#106 = CARTESIAN_POINT ( 'NONE',  ( 1.696859930677762937E-13, -5.951783443856137509E-15, 48.60000000000000142 ) ) ;
#107 = LOCAL_TIME ( 15, 34, 19.00000000000000000, #128 ) ;
#108 = VERTEX_POINT ( 'NONE', #45 ) ;
#109 = DIRECTION ( 'NONE',  ( 3.491481338843133355E-15, -1.224646799147353207E-16, 1.000000000000000000 ) ) ;
#110 = CIRCLE ( 'NONE', #127, 1.549999999999989386 ) ;
#111 = CARTESIAN_POINT ( 'NONE',  ( 0.0000000000000000000, 0.0000000000000000000, 0.0000000000000000000 ) ) ;
#112 =( LENGTH_UNIT ( ) NAMED_UNIT ( * ) SI_UNIT ( .MILLI., .METRE. ) );
#113 = DIRECTION ( 'NONE',  ( 1.000000000000000000, 0.0000000000000000000, 0.0000000000000000000 ) ) ;
#114 = PRODUCT_DEFINITION ( 'UNKNOWN', '', #153, #39 ) ;
#115 = AXIS2_PLACEMENT_3D ( 'NONE', #183, #10, #93 ) ;
#116 = APPROVAL_ROLE ( '' ) ;
#117 = CALENDAR_DATE ( 2021, 15, 10 ) ;
#118 = APPROVAL_STATUS ( 'not_yet_approved' ) ;
#119 = ADVANCED_FACE ( 'NONE', ( #77, #124 ), #126, .T. ) ;
#120 = ORIENTED_EDGE ( 'NONE', *, *, #131, .F. ) ;
#121 = ADVANCED_FACE ( 'NONE', ( #125 ), #167, .F. ) ;
#122 = LOCAL_TIME ( 15, 34, 19.00000000000000000, #202 ) ;
#123 = ORIENTED_EDGE ( 'NONE', *, *, #79, .T. ) ;
#124 = FACE_OUTER_BOUND ( 'NONE', #176, .T. ) ;
#125 = FACE_OUTER_BOUND ( 'NONE', #71, .T. ) ;
#126 = CYLINDRICAL_SURFACE ( 'NONE', #115, 1.549999999999988276 ) ;
#127 = AXIS2_PLACEMENT_3D ( 'NONE', #24, #9, #96 ) ;
#128 = COORDINATED_UNIVERSAL_TIME_OFFSET ( 1, 0, .AHEAD. ) ;
#129 = CALENDAR_DATE ( 2021, 15, 10 ) ;
#130 = ORIENTED_EDGE ( 'NONE', *, *, #94, .F. ) ;
#131 = EDGE_CURVE ( 'NONE', #8, #8, #110, .T. ) ;
#132 = CARTESIAN_POINT ( 'NONE',  ( 1.710825856033135470E-13, -6.000769315822030937E-15, 49.00000000000000000 ) ) ;
#133 = FACE_OUTER_BOUND ( 'NONE', #70, .T. ) ;
#134 = AXIS2_PLACEMENT_3D ( 'NONE', #193, #175, #136 ) ;
#135 = VERTEX_POINT ( 'NONE', #55 ) ;
#136 = DIRECTION ( 'NONE',  ( 4.970141791967101175E-31, 1.000000000000000000, 1.398970545142597881E-16 ) ) ;
#137 = CIRCLE ( 'NONE', #48, 1.149999999999993916 ) ;
#138 = APPROVAL_DATE_TIME ( #81, #200 ) ;
#139 = APPROVAL_ROLE ( '' ) ;
#140 = AXIS2_PLACEMENT_3D ( 'NONE', #190, #173, #113 ) ;
#141 = APPLICATION_PROTOCOL_DEFINITION ( 'international standard', 'config_control_design', 1994, #179 ) ;
#142 = CC_DESIGN_DATE_AND_TIME_ASSIGNMENT ( #82, #51, ( #21 ) ) ;
#143 = PERSON_AND_ORGANIZATION ( #50, #75 ) ;
#144 = FACE_OUTER_BOUND ( 'NONE', #20, .T. ) ;
#145 = CC_DESIGN_PERSON_AND_ORGANIZATION_ASSIGNMENT ( #187, #170, ( #14 ) ) ;
#146 = AXIS2_PLACEMENT_3D ( 'NONE', #166, #40, #152 ) ;
#147 = ORIENTED_EDGE ( 'NONE', *, *, #12, .F. ) ;
#148 = EDGE_LOOP ( 'NONE', ( #163 ) ) ;
#149 = FACE_OUTER_BOUND ( 'NONE', #105, .T. ) ;
#150 = DIRECTION ( 'NONE',  ( 3.491481338843133355E-15, -1.224646799147353207E-16, 1.000000000000000000 ) ) ;
#151 = CC_DESIGN_PERSON_AND_ORGANIZATION_ASSIGNMENT ( #1, #34, ( #114 ) ) ;
#152 = DIRECTION ( 'NONE',  ( 4.275831445896958607E-31, 1.000000000000000000, 1.224646799147353207E-16 ) ) ;
#153 = PRODUCT_DEFINITION_FORMATION_WITH_SPECIFIED_SOURCE ( 'ANY', '', #14, .NOT_KNOWN. ) ;
#154 = FACE_OUTER_BOUND ( 'NONE', #53, .T. ) ;
#155 = DIRECTION ( 'NONE',  ( 0.0000000000000000000, 1.000000000000000000, 0.0000000000000000000 ) ) ;
#156 = PERSON_AND_ORGANIZATION ( #50, #75 ) ;
#157 = CC_DESIGN_APPROVAL ( #200, ( #114 ) ) ;
#158 = PERSON_AND_ORGANIZATION ( #50, #75 ) ;
#159 = APPROVAL_STATUS ( 'not_yet_approved' ) ;
#160 = DATE_AND_TIME ( #117, #107 ) ;
#161 = CONICAL_SURFACE ( 'NONE', #15, 1.149999999999993916, 0.7853981633974501664 ) ;
#162 = EDGE_LOOP ( 'NONE', ( #178 ) ) ;
#163 = ORIENTED_EDGE ( 'NONE', *, *, #94, .T. ) ;
#164 = DIRECTION ( 'NONE',  ( -3.491481338843133355E-15, 1.224646799147353207E-16, -1.000000000000000000 ) ) ;
#165 = DIRECTION ( 'NONE',  ( 4.275831445896958607E-31, 1.000000000000000000, 1.224646799147353207E-16 ) ) ;
#166 = CARTESIAN_POINT ( 'NONE',  ( 1.710825856033135470E-13, 8.623618750305545768E-33, 49.00000000000000000 ) ) ;
#167 = PLANE ( 'NONE',  #11 ) ;
#168 = CIRCLE ( 'NONE', #134, 1.549999999999987166 ) ;
#169 = DIRECTION ( 'NONE',  ( -3.491481338843133355E-15, 1.224646799147353207E-16, -1.000000000000000000 ) ) ;
#170 = PERSON_AND_ORGANIZATION_ROLE ( 'design_owner' ) ;
#171 = SHAPE_DEFINITION_REPRESENTATION ( #31, #91 ) ;
#172 = ADVANCED_FACE ( 'NONE', ( #23, #149 ), #41, .T. ) ;
#173 = DIRECTION ( 'NONE',  ( 0.0000000000000000000, 0.0000000000000000000, 1.000000000000000000 ) ) ;
#174 = LOCAL_TIME ( 15, 34, 19.00000000000000000, #103 ) ;
#175 = DIRECTION ( 'NONE',  ( -3.491481338843133355E-15, 1.224646799147353207E-16, -1.000000000000000000 ) ) ;
#176 = EDGE_LOOP ( 'NONE', ( #19 ) ) ;
#177 = EDGE_CURVE ( 'NONE', #135, #135, #60, .T. ) ;
#178 = ORIENTED_EDGE ( 'NONE', *, *, #79, .F. ) ;
#179 = APPLICATION_CONTEXT ( 'configuration controlled 3d designs of mechanical parts and assemblies' ) ;
#180 = ADVANCED_FACE ( 'NONE', ( #133 ), #196, .F. ) ;
#181 = DIRECTION ( 'NONE',  ( -3.491481338843133355E-15, 1.224646799147353207E-16, -1.000000000000000000 ) ) ;
#182 = FACE_OUTER_BOUND ( 'NONE', #88, .T. ) ;
#183 = CARTESIAN_POINT ( 'NONE',  ( 0.0000000000000000000, 0.0000000000000000000, 0.0000000000000000000 ) ) ;
#184 = CLOSED_SHELL ( 'NONE', ( #90, #119, #73 ) ) ;
#185 = DIRECTION ( 'NONE',  ( 0.0000000000000000000, 1.000000000000000000, 0.0000000000000000000 ) ) ;
#186 = CALENDAR_DATE ( 2021, 15, 10 ) ;
#187 = PERSON_AND_ORGANIZATION ( #50, #75 ) ;
#188 = AXIS2_PLACEMENT_3D ( 'NONE', #106, #164, #87 ) ;
#189 = MECHANICAL_CONTEXT ( 'NONE', #179, 'mechanical' ) ;
#190 = CARTESIAN_POINT ( 'NONE',  ( 0.0000000000000000000, 0.0000000000000000000, 0.0000000000000000000 ) ) ;
#191 = APPROVAL_STATUS ( 'not_yet_approved' ) ;
#192 = CIRCLE ( 'NONE', #188, 1.549999999999992939 ) ;
#193 = CARTESIAN_POINT ( 'NONE',  ( 1.969732685293964747E-15, -6.908892226874801532E-17, 0.5641538631126167269 ) ) ;
#194 = ORIENTED_EDGE ( 'NONE', *, *, #177, .F. ) ;
#195 = CARTESIAN_POINT ( 'NONE',  ( 6.284666409917638777E-14, -2.204364238465235033E-15, 17.99999999999999645 ) ) ;
#196 = PLANE ( 'NONE',  #146 ) ;
#197 = APPROVAL ( #159, 'UNSPECIFIED' ) ;
#198 = CARTESIAN_POINT ( 'NONE',  ( 6.284666409917638777E-14, 1.162313831562928151E-32, 17.99999999999999645 ) ) ;
#199 = DATE_TIME_ROLE ( 'creation_date' ) ;
#200 = APPROVAL ( #118, 'UNSPECIFIED' ) ;
#201 = DATE_AND_TIME ( #13, #122 ) ;
#202 = COORDINATED_UNIVERSAL_TIME_OFFSET ( 1, 0, .AHEAD. ) ;
#203 = CC_DESIGN_APPROVAL ( #197, ( #153 ) ) ;
ENDSEC;
END-ISO-10303-21;
