ISO-10303-21;
HEADER;
FILE_DESCRIPTION (( 'STEP AP203' ),
    '1' );
FILE_NAME ('31133.step',
    '2021-11-17T10:20:13',
    ( '' ),
    ( '' ),
    'SwSTEP 2.0',
    'SolidWorks 2019',
    '' );
FILE_SCHEMA (( 'CONFIG_CONTROL_DESIGN' ));
ENDSEC;

DATA;
#1 = COORDINATED_UNIVERSAL_TIME_OFFSET ( 1, 0, .AHEAD. ) ;
#2 = LOCAL_TIME ( 11, 20, 13.00000000000000000, #156 ) ;
#3 =( NAMED_UNIT ( * ) PLANE_ANGLE_UNIT ( ) SI_UNIT ( $, .RADIAN. ) );
#4 = EDGE_CURVE ( 'NONE', #43, #43, #218, .T. ) ;
#5 = PERSON_AND_ORGANIZATION_ROLE ( 'classification_officer' ) ;
#6 = EDGE_LOOP ( 'NONE', ( #204 ) ) ;
#7 = CC_DESIGN_SECURITY_CLASSIFICATION ( #11, ( #104 ) ) ;
#8 = ADVANCED_FACE ( 'NONE', ( #45, #221 ), #192, .T. ) ;
#9 = CARTESIAN_POINT ( 'NONE',  ( -2.041121027307184423E-30, 7.119948065315121647E-32, -5.846002968996216498E-16 ) ) ;
#10 = DIRECTION ( 'NONE',  ( -3.491481338843133355E-15, 1.224646799147353207E-16, -1.000000000000000000 ) ) ;
#11 = SECURITY_CLASSIFICATION ( '', '', #40 ) ;
#12 = DIRECTION ( 'NONE',  ( 0.0000000000000000000, 1.000000000000000000, 0.0000000000000000000 ) ) ;
#13 = CARTESIAN_POINT ( 'NONE',  ( -1.068957861474239564E-30, 3.749399456654644020E-32, -3.061616997868383141E-16 ) ) ;
#14 = DIRECTION ( 'NONE',  ( 3.491481338843133355E-15, -1.224646799147353207E-16, 1.000000000000000000 ) ) ;
#15 = APPROVAL_STATUS ( 'not_yet_approved' ) ;
#16 = ADVANCED_FACE ( 'NONE', ( #29 ), #209, .T. ) ;
#17 = AXIS2_PLACEMENT_3D ( 'NONE', #190, #92, #94 ) ;
#18 =( NAMED_UNIT ( * ) SI_UNIT ( $, .STERADIAN. ) SOLID_ANGLE_UNIT ( ) );
#19 = CALENDAR_DATE ( 2021, 17, 11 ) ;
#20 = APPROVAL_DATE_TIME ( #178, #62 ) ;
#21 = CALENDAR_DATE ( 2021, 17, 11 ) ;
#22 = PERSON_AND_ORGANIZATION_ROLE ( 'creator' ) ;
#23 = ORIENTED_EDGE ( 'NONE', *, *, #25, .F. ) ;
#24 = FACE_OUTER_BOUND ( 'NONE', #105, .T. ) ;
#25 = EDGE_CURVE ( 'NONE', #76, #76, #223, .T. ) ;
#26 = APPLICATION_CONTEXT ( 'configuration controlled 3d designs of mechanical parts and assemblies' ) ;
#27 = FACE_OUTER_BOUND ( 'NONE', #41, .T. ) ;
#28 = DIRECTION ( 'NONE',  ( 0.0000000000000000000, 1.000000000000000000, 0.0000000000000000000 ) ) ;
#29 = FACE_OUTER_BOUND ( 'NONE', #85, .T. ) ;
#30 = DIRECTION ( 'NONE',  ( 4.275831445896958607E-31, 1.000000000000000000, 1.224646799147353207E-16 ) ) ;
#31 = PRODUCT_DEFINITION_SHAPE ( 'NONE', 'NONE',  #97 ) ;
#32 = AXIS2_PLACEMENT_3D ( 'NONE', #13, #93, #64 ) ;
#33 = APPLICATION_PROTOCOL_DEFINITION ( 'international standard', 'config_control_design', 1994, #108 ) ;
#34 = APPROVAL_DATE_TIME ( #119, #116 ) ;
#35 = PERSON_AND_ORGANIZATION ( #39, #69 ) ;
#36 = DATE_AND_TIME ( #59, #2 ) ;
#37 = DIRECTION ( 'NONE',  ( -3.491481338843133355E-15, 1.224646799147353207E-16, -1.000000000000000000 ) ) ;
#38 = AXIS2_PLACEMENT_3D ( 'NONE', #50, #207, #12 ) ;
#39 = PERSON ( 'UNSPECIFIED', 'UNSPECIFIED', 'UNSPECIFIED', ('UNSPECIFIED'), ('UNSPECIFIED'), ('UNSPECIFIED') ) ;
#40 = SECURITY_CLASSIFICATION_LEVEL ( 'unclassified' ) ;
#41 = EDGE_LOOP ( 'NONE', ( #216 ) ) ;
#42 = EDGE_LOOP ( 'NONE', ( #72 ) ) ;
#43 = VERTEX_POINT ( 'NONE', #187 ) ;
#44 = ADVANCED_FACE ( 'NONE', ( #65, #24 ), #196, .T. ) ;
#45 = FACE_OUTER_BOUND ( 'NONE', #121, .T. ) ;
#46 = CARTESIAN_POINT ( 'NONE',  ( 0.0000000000000000000, 0.0000000000000000000, 0.0000000000000000000 ) ) ;
#47 = CARTESIAN_POINT ( 'NONE',  ( 6.982962677686251919E-16, -2.435834570415085688E-17, 0.1999999999999995670 ) ) ;
#48 = AXIS2_PLACEMENT_3D ( 'NONE', #9, #130, #113 ) ;
#49 = LOCAL_TIME ( 11, 20, 13.00000000000000000, #122 ) ;
#50 = CARTESIAN_POINT ( 'NONE',  ( 2.496409157272840412E-13, -8.756224613903574137E-15, 71.50000000000000000 ) ) ;
#51 =( LENGTH_UNIT ( ) NAMED_UNIT ( * ) SI_UNIT ( .MILLI., .METRE. ) );
#52 =( GEOMETRIC_REPRESENTATION_CONTEXT ( 3 ) GLOBAL_UNCERTAINTY_ASSIGNED_CONTEXT ( ( #142 ) ) GLOBAL_UNIT_ASSIGNED_CONTEXT ( ( #51, #3, #18 ) ) REPRESENTATION_CONTEXT ( 'NONE', 'WORKASPACE' ) );
#53 = CARTESIAN_POINT ( 'NONE',  ( 6.982962677686231212E-16, -5.000000000000000000, 0.1999999999999989841 ) ) ;
#54 = DIRECTION ( 'NONE',  ( 0.0000000000000000000, 0.0000000000000000000, 1.000000000000000000 ) ) ;
#55 = EDGE_LOOP ( 'NONE', ( #185 ) ) ;
#56 = ORIENTED_EDGE ( 'NONE', *, *, #183, .F. ) ;
#57 = EDGE_CURVE ( 'NONE', #63, #63, #175, .T. ) ;
#58 = CIRCLE ( 'NONE', #17, 5.000000000000000000 ) ;
#59 = CALENDAR_DATE ( 2021, 17, 11 ) ;
#60 = EDGE_LOOP ( 'NONE', ( #179 ) ) ;
#61 = FACE_OUTER_BOUND ( 'NONE', #202, .T. ) ;
#62 = APPROVAL ( #161, 'UNSPECIFIED' ) ;
#63 = VERTEX_POINT ( 'NONE', #68 ) ;
#64 = DIRECTION ( 'NONE',  ( 4.275831445896958607E-31, 1.000000000000000000, 1.224646799147353207E-16 ) ) ;
#65 = FACE_BOUND ( 'NONE', #55, .T. ) ;
#66 = DIRECTION ( 'NONE',  ( 3.491481338843133355E-15, -1.224646799147353207E-16, 1.000000000000000000 ) ) ;
#67 = DIRECTION ( 'NONE',  ( 1.000000000000000000, 0.0000000000000000000, 0.0000000000000000000 ) ) ;
#68 = CARTESIAN_POINT ( 'NONE',  ( -4.082242054614368845E-30, -4.799999999999998934, -1.169200593799243300E-15 ) ) ;
#69 = ORGANIZATION ( 'UNSPECIFIED', 'UNSPECIFIED', '' ) ;
#70 = DESIGN_CONTEXT ( 'detailed design', #26, 'design' ) ;
#71 = MANIFOLD_SOLID_BREP ( 'Corps-Déplacer/Copier1[1]', #87 ) ;
#72 = ORIENTED_EDGE ( 'NONE', *, *, #183, .T. ) ;
#73 = DIRECTION ( 'NONE',  ( -3.491481338843133355E-15, 1.224646799147353207E-16, -1.000000000000000000 ) ) ;
#74 = CARTESIAN_POINT ( 'NONE',  ( 7.681258945454893382E-14, 3.749399456654640188E-32, 22.00000000000000000 ) ) ;
#75 = APPROVAL_PERSON_ORGANIZATION ( #180, #62, #84 ) ;
#76 = VERTEX_POINT ( 'NONE', #89 ) ;
#77 = CC_DESIGN_PERSON_AND_ORGANIZATION_ASSIGNMENT ( #173, #212, ( #82 ) ) ;
#78 = CARTESIAN_POINT ( 'NONE',  ( 7.681258945454893382E-14, -2.694222958124176809E-15, 22.00000000000000000 ) ) ;
#79 = DIRECTION ( 'NONE',  ( -4.275831445896958607E-31, -1.000000000000000000, -1.224646799147353207E-16 ) ) ;
#80 = AXIS2_PLACEMENT_3D ( 'NONE', #114, #10, #220 ) ;
#81 = AXIS2_PLACEMENT_3D ( 'NONE', #126, #14, #79 ) ;
#82 = PRODUCT ( '31133', '31133', '', ( #213 ) ) ;
#83 = ORIENTED_EDGE ( 'NONE', *, *, #145, .T. ) ;
#84 = APPROVAL_ROLE ( '' ) ;
#85 = EDGE_LOOP ( 'NONE', ( #101 ) ) ;
#86 = DATE_TIME_ROLE ( 'classification_date' ) ;
#87 = CLOSED_SHELL ( 'NONE', ( #208, #8, #166, #128 ) ) ;
#88 = CIRCLE ( 'NONE', #154, 5.000000000000000000 ) ;
#89 = CARTESIAN_POINT ( 'NONE',  ( 2.496409157272840412E-13, 4.999999999999990230, 71.50000000000000000 ) ) ;
#90 = DIRECTION ( 'NONE',  ( 4.275831445896958607E-31, 1.000000000000000000, 1.224646799147353207E-16 ) ) ;
#91 = AXIS2_PLACEMENT_3D ( 'NONE', #139, #54, #67 ) ;
#92 = DIRECTION ( 'NONE',  ( -3.491481338843133355E-15, 1.224646799147353207E-16, -1.000000000000000000 ) ) ;
#93 = DIRECTION ( 'NONE',  ( -3.491481338843133355E-15, 1.224646799147353207E-16, -1.000000000000000000 ) ) ;
#94 = DIRECTION ( 'NONE',  ( 0.0000000000000000000, 1.000000000000000000, 0.0000000000000000000 ) ) ;
#95 = PERSON_AND_ORGANIZATION ( #39, #69 ) ;
#96 = PERSON_AND_ORGANIZATION ( #39, #69 ) ;
#97 = PRODUCT_DEFINITION ( 'UNKNOWN', '', #104, #70 ) ;
#98 = LOCAL_TIME ( 11, 20, 13.00000000000000000, #120 ) ;
#99 = APPLICATION_PROTOCOL_DEFINITION ( 'international standard', 'config_control_design', 1994, #26 ) ;
#100 = COORDINATED_UNIVERSAL_TIME_OFFSET ( 1, 0, .AHEAD. ) ;
#101 = ORIENTED_EDGE ( 'NONE', *, *, #57, .F. ) ;
#102 = CALENDAR_DATE ( 2021, 17, 11 ) ;
#103 = DIRECTION ( 'NONE',  ( 0.0000000000000000000, 1.000000000000000000, 0.0000000000000000000 ) ) ;
#104 = PRODUCT_DEFINITION_FORMATION_WITH_SPECIFIED_SOURCE ( 'ANY', '', #82, .NOT_KNOWN. ) ;
#105 = EDGE_LOOP ( 'NONE', ( #125 ) ) ;
#106 = APPROVAL_STATUS ( 'not_yet_approved' ) ;
#107 = ORIENTED_EDGE ( 'NONE', *, *, #145, .F. ) ;
#108 = APPLICATION_CONTEXT ( 'configuration controlled 3d designs of mechanical parts and assemblies' ) ;
#109 = DATE_AND_TIME ( #102, #49 ) ;
#110 = EDGE_CURVE ( 'NONE', #195, #195, #88, .T. ) ;
#111 = AXIS2_PLACEMENT_3D ( 'NONE', #74, #66, #210 ) ;
#112 = DIRECTION ( 'NONE',  ( 3.491481338843133355E-15, -1.217917285207545432E-16, 1.000000000000000000 ) ) ;
#113 = DIRECTION ( 'NONE',  ( -4.252335473556634944E-31, -1.000000000000000000, -1.217917285207545432E-16 ) ) ;
#114 = CARTESIAN_POINT ( 'NONE',  ( 2.513866563967056016E-13, 3.374459510989167028E-32, 72.00000000000000000 ) ) ;
#115 = CYLINDRICAL_SURFACE ( 'NONE', #191, 5.000000000000000000 ) ;
#116 = APPROVAL ( #15, 'UNSPECIFIED' ) ;
#117 = AXIS2_PLACEMENT_3D ( 'NONE', #159, #37, #103 ) ;
#118 = VERTEX_POINT ( 'NONE', #135 ) ;
#119 = DATE_AND_TIME ( #19, #201 ) ;
#120 = COORDINATED_UNIVERSAL_TIME_OFFSET ( 1, 0, .AHEAD. ) ;
#121 = EDGE_LOOP ( 'NONE', ( #165 ) ) ;
#122 = COORDINATED_UNIVERSAL_TIME_OFFSET ( 1, 0, .AHEAD. ) ;
#123 = EDGE_LOOP ( 'NONE', ( #56 ) ) ;
#124 = CC_DESIGN_PERSON_AND_ORGANIZATION_ASSIGNMENT ( #96, #174, ( #97 ) ) ;
#125 = ORIENTED_EDGE ( 'NONE', *, *, #110, .F. ) ;
#126 = CARTESIAN_POINT ( 'NONE',  ( 7.681258945454893382E-14, 3.749399456654640188E-32, 22.00000000000000000 ) ) ;
#127 = FACE_OUTER_BOUND ( 'NONE', #60, .T. ) ;
#128 = ADVANCED_FACE ( 'NONE', ( #27 ), #222, .F. ) ;
#129 = CARTESIAN_POINT ( 'NONE',  ( 2.496409157272840412E-13, -8.756224613903574137E-15, 71.50000000000000000 ) ) ;
#130 = DIRECTION ( 'NONE',  ( 3.491481338843133355E-15, -1.217917285207545432E-16, 1.000000000000000000 ) ) ;
#131 = AXIS2_PLACEMENT_3D ( 'NONE', #152, #189, #90 ) ;
#132 = LOCAL_TIME ( 11, 20, 13.00000000000000000, #100 ) ;
#133 = DIRECTION ( 'NONE',  ( 3.491481338843133355E-15, -1.217917285207545432E-16, 1.000000000000000000 ) ) ;
#134 = APPROVAL ( #106, 'UNSPECIFIED' ) ;
#135 = CARTESIAN_POINT ( 'NONE',  ( 7.681258945454893382E-14, 4.999999999999997335, 22.00000000000000000 ) ) ;
#136 = CONICAL_SURFACE ( 'NONE', #38, 4.999999999999999112, 0.7853981633974466137 ) ;
#137 = CC_DESIGN_APPROVAL ( #62, ( #11 ) ) ;
#138 = CARTESIAN_POINT ( 'NONE',  ( 7.681258945454893382E-14, 4.999999999999997335, 22.00000000000000000 ) ) ;
#139 = CARTESIAN_POINT ( 'NONE',  ( 0.0000000000000000000, 0.0000000000000000000, 0.0000000000000000000 ) ) ;
#140 = CLOSED_SHELL ( 'NONE', ( #177, #163, #44, #16 ) ) ;
#141 = APPROVAL_DATE_TIME ( #200, #134 ) ;
#142 = UNCERTAINTY_MEASURE_WITH_UNIT (LENGTH_MEASURE( 1.000000000000000082E-05 ), #51, 'distance_accuracy_value', 'NONE');
#143 = PERSON_AND_ORGANIZATION_ROLE ( 'design_supplier' ) ;
#144 = EDGE_LOOP ( 'NONE', ( #83 ) ) ;
#145 = EDGE_CURVE ( 'NONE', #155, #155, #214, .T. ) ;
#146 = APPROVAL_PERSON_ORGANIZATION ( #95, #116, #176 ) ;
#147 = DATE_TIME_ROLE ( 'creation_date' ) ;
#148 = FACE_OUTER_BOUND ( 'NONE', #144, .T. ) ;
#149 = MANIFOLD_SOLID_BREP ( 'Corps-Déplacer/Copier1[2]', #140 ) ;
#150 = FACE_OUTER_BOUND ( 'NONE', #199, .T. ) ;
#151 = DIRECTION ( 'NONE',  ( -3.491481338843133355E-15, 1.224646799147353207E-16, -1.000000000000000000 ) ) ;
#152 = CARTESIAN_POINT ( 'NONE',  ( 0.0000000000000000000, 0.0000000000000000000, 0.0000000000000000000 ) ) ;
#153 = CC_DESIGN_PERSON_AND_ORGANIZATION_ASSIGNMENT ( #162, #22, ( #104 ) ) ;
#154 = AXIS2_PLACEMENT_3D ( 'NONE', #205, #133, #167 ) ;
#155 = VERTEX_POINT ( 'NONE', #138 ) ;
#156 = COORDINATED_UNIVERSAL_TIME_OFFSET ( 1, 0, .AHEAD. ) ;
#157 = PERSON_AND_ORGANIZATION ( #39, #69 ) ;
#158 = ADVANCED_BREP_SHAPE_REPRESENTATION ( '31133', ( #71, #149, #91 ), #52 ) ;
#159 = CARTESIAN_POINT ( 'NONE',  ( 2.513866563967056016E-13, -8.817456953860941711E-15, 72.00000000000000000 ) ) ;
#160 = AXIS2_PLACEMENT_3D ( 'NONE', #129, #151, #217 ) ;
#161 = APPROVAL_STATUS ( 'not_yet_approved' ) ;
#162 = PERSON_AND_ORGANIZATION ( #39, #69 ) ;
#163 = ADVANCED_FACE ( 'NONE', ( #61 ), #171, .T. ) ;
#164 = PERSON_AND_ORGANIZATION ( #39, #69 ) ;
#165 = ORIENTED_EDGE ( 'NONE', *, *, #25, .T. ) ;
#166 = ADVANCED_FACE ( 'NONE', ( #219, #150 ), #136, .T. ) ;
#167 = DIRECTION ( 'NONE',  ( -4.237045877651918877E-31, -1.000000000000000000, -1.192622389734054877E-16 ) ) ;
#168 = CC_DESIGN_APPROVAL ( #134, ( #104 ) ) ;
#169 = APPROVAL_PERSON_ORGANIZATION ( #164, #134, #215 ) ;
#170 = PLANE ( 'NONE',  #81 ) ;
#171 = PLANE ( 'NONE',  #111 ) ;
#172 = FACE_OUTER_BOUND ( 'NONE', #42, .T. ) ;
#173 = PERSON_AND_ORGANIZATION ( #39, #69 ) ;
#174 = PERSON_AND_ORGANIZATION_ROLE ( 'creator' ) ;
#175 = CIRCLE ( 'NONE', #48, 4.799999999999998934 ) ;
#176 = APPROVAL_ROLE ( '' ) ;
#177 = ADVANCED_FACE ( 'NONE', ( #148, #127 ), #115, .T. ) ;
#178 = DATE_AND_TIME ( #198, #132 ) ;
#179 = ORIENTED_EDGE ( 'NONE', *, *, #110, .T. ) ;
#180 = PERSON_AND_ORGANIZATION ( #39, #69 ) ;
#181 = AXIS2_PLACEMENT_3D ( 'NONE', #47, #112, #206 ) ;
#182 = CC_DESIGN_APPROVAL ( #116, ( #97 ) ) ;
#183 = EDGE_CURVE ( 'NONE', #118, #118, #58, .T. ) ;
#184 = SHAPE_DEFINITION_REPRESENTATION ( #31, #158 ) ;
#185 = ORIENTED_EDGE ( 'NONE', *, *, #57, .T. ) ;
#186 = CC_DESIGN_PERSON_AND_ORGANIZATION_ASSIGNMENT ( #35, #5, ( #11 ) ) ;
#187 = CARTESIAN_POINT ( 'NONE',  ( 2.513866563967056016E-13, 4.499999999999992006, 72.00000000000000000 ) ) ;
#188 = CC_DESIGN_DATE_AND_TIME_ASSIGNMENT ( #36, #86, ( #11 ) ) ;
#189 = DIRECTION ( 'NONE',  ( -3.491481338843133355E-15, 1.224646799147353207E-16, -1.000000000000000000 ) ) ;
#190 = CARTESIAN_POINT ( 'NONE',  ( 7.681258945454893382E-14, -2.694222958124176809E-15, 22.00000000000000000 ) ) ;
#191 = AXIS2_PLACEMENT_3D ( 'NONE', #46, #194, #30 ) ;
#192 = CYLINDRICAL_SURFACE ( 'NONE', #131, 4.999999999999999112 ) ;
#193 = PRODUCT_RELATED_PRODUCT_CATEGORY ( 'detail', '', ( #82 ) ) ;
#194 = DIRECTION ( 'NONE',  ( -3.491481338843133355E-15, 1.224646799147353207E-16, -1.000000000000000000 ) ) ;
#195 = VERTEX_POINT ( 'NONE', #53 ) ;
#196 = CONICAL_SURFACE ( 'NONE', #181, 5.000000000000000000, 0.7853981633974513876 ) ;
#197 = CC_DESIGN_DATE_AND_TIME_ASSIGNMENT ( #109, #147, ( #97 ) ) ;
#198 = CALENDAR_DATE ( 2021, 17, 11 ) ;
#199 = EDGE_LOOP ( 'NONE', ( #23 ) ) ;
#200 = DATE_AND_TIME ( #21, #98 ) ;
#201 = LOCAL_TIME ( 11, 20, 13.00000000000000000, #1 ) ;
#202 = EDGE_LOOP ( 'NONE', ( #107 ) ) ;
#203 = CC_DESIGN_PERSON_AND_ORGANIZATION_ASSIGNMENT ( #157, #143, ( #104 ) ) ;
#204 = ORIENTED_EDGE ( 'NONE', *, *, #4, .T. ) ;
#205 = CARTESIAN_POINT ( 'NONE',  ( 6.982962677686251919E-16, -2.435834570415085688E-17, 0.1999999999999995670 ) ) ;
#206 = DIRECTION ( 'NONE',  ( -4.237045877651918877E-31, -1.000000000000000000, -1.192622389734054877E-16 ) ) ;
#207 = DIRECTION ( 'NONE',  ( -3.491481338843133355E-15, 1.224646799147353207E-16, -1.000000000000000000 ) ) ;
#208 = ADVANCED_FACE ( 'NONE', ( #172 ), #170, .F. ) ;
#209 = PLANE ( 'NONE',  #32 ) ;
#210 = DIRECTION ( 'NONE',  ( -4.275831445896958607E-31, -1.000000000000000000, -1.224646799147353207E-16 ) ) ;
#211 = AXIS2_PLACEMENT_3D ( 'NONE', #78, #73, #28 ) ;
#212 = PERSON_AND_ORGANIZATION_ROLE ( 'design_owner' ) ;
#213 = MECHANICAL_CONTEXT ( 'NONE', #108, 'mechanical' ) ;
#214 = CIRCLE ( 'NONE', #211, 5.000000000000000000 ) ;
#215 = APPROVAL_ROLE ( '' ) ;
#216 = ORIENTED_EDGE ( 'NONE', *, *, #4, .F. ) ;
#217 = DIRECTION ( 'NONE',  ( 0.0000000000000000000, 1.000000000000000000, 0.0000000000000000000 ) ) ;
#218 = CIRCLE ( 'NONE', #117, 4.500000000000000888 ) ;
#219 = FACE_BOUND ( 'NONE', #6, .T. ) ;
#220 = DIRECTION ( 'NONE',  ( 4.275831445896958607E-31, 1.000000000000000000, 1.224646799147353207E-16 ) ) ;
#221 = FACE_OUTER_BOUND ( 'NONE', #123, .T. ) ;
#222 = PLANE ( 'NONE',  #80 ) ;
#223 = CIRCLE ( 'NONE', #160, 4.999999999999999112 ) ;
ENDSEC;
END-ISO-10303-21;
