ISO-10303-21;
HEADER;
FILE_DESCRIPTION (( 'STEP AP203' ),
    '1' );
FILE_NAME ('310782.step',
    '2021-11-25T06:47:03',
    ( '' ),
    ( '' ),
    'SwSTEP 2.0',
    'SolidWorks 2019',
    '' );
FILE_SCHEMA (( 'CONFIG_CONTROL_DESIGN' ));
ENDSEC;

DATA;
#1 = ADVANCED_BREP_SHAPE_REPRESENTATION ( '310782', ( #102, #104, #17 ), #71 ) ;
#2 = CIRCLE ( 'NONE', #35, 1.499999999999999778 ) ;
#3 = DIRECTION ( 'NONE',  ( -3.491481338843133355E-15, 1.224646799147353207E-16, -1.000000000000000000 ) ) ;
#4 = DIRECTION ( 'NONE',  ( 4.275831445896958607E-31, 1.000000000000000000, 1.224646799147353454E-16 ) ) ;
#5 = ORIENTED_EDGE ( 'NONE', *, *, #131, .F. ) ;
#6 = PERSON_AND_ORGANIZATION ( #37, #66 ) ;
#7 = DIRECTION ( 'NONE',  ( 0.0000000000000000000, 1.000000000000000000, 0.0000000000000000000 ) ) ;
#8 = DATE_AND_TIME ( #128, #172 ) ;
#9 = ORIENTED_EDGE ( 'NONE', *, *, #131, .T. ) ;
#10 = APPLICATION_PROTOCOL_DEFINITION ( 'international standard', 'config_control_design', 1994, #133 ) ;
#11 = AXIS2_PLACEMENT_3D ( 'NONE', #169, #42, #173 ) ;
#12 = PERSON_AND_ORGANIZATION_ROLE ( 'creator' ) ;
#13 = SHAPE_DEFINITION_REPRESENTATION ( #150, #1 ) ;
#14 = CC_DESIGN_APPROVAL ( #75, ( #171 ) ) ;
#15 = ORIENTED_EDGE ( 'NONE', *, *, #143, .T. ) ;
#16 = UNCERTAINTY_MEASURE_WITH_UNIT (LENGTH_MEASURE( 1.000000000000000082E-05 ), #114, 'distance_accuracy_value', 'NONE');
#17 = AXIS2_PLACEMENT_3D ( 'NONE', #44, #170, #60 ) ;
#18 = ORIENTED_EDGE ( 'NONE', *, *, #53, .F. ) ;
#19 = APPROVAL_PERSON_ORGANIZATION ( #97, #86, #179 ) ;
#20 = DIRECTION ( 'NONE',  ( 0.0000000000000000000, 1.000000000000000000, 0.0000000000000000000 ) ) ;
#21 = CYLINDRICAL_SURFACE ( 'NONE', #136, 1.499999999999999334 ) ;
#22 = PERSON_AND_ORGANIZATION ( #37, #66 ) ;
#23 = DIRECTION ( 'NONE',  ( -3.491481338843133355E-15, 1.224646799147353207E-16, -1.000000000000000000 ) ) ;
#24 = PERSON_AND_ORGANIZATION ( #37, #66 ) ;
#25 = DIRECTION ( 'NONE',  ( 0.0000000000000000000, 1.000000000000000000, 0.0000000000000000000 ) ) ;
#26 = AXIS2_PLACEMENT_3D ( 'NONE', #108, #65, #25 ) ;
#27 = APPROVAL_DATE_TIME ( #29, #86 ) ;
#28 = ADVANCED_FACE ( 'NONE', ( #82, #135 ), #21, .T. ) ;
#29 = DATE_AND_TIME ( #127, #129 ) ;
#30 = EDGE_CURVE ( 'NONE', #121, #121, #159, .T. ) ;
#31 = CC_DESIGN_SECURITY_CLASSIFICATION ( #171, ( #51 ) ) ;
#32 = AXIS2_PLACEMENT_3D ( 'NONE', #94, #155, #177 ) ;
#33 = CARTESIAN_POINT ( 'NONE',  ( 1.326762908760390423E-13, 1.199999999999996181, 38.00000000000000000 ) ) ;
#34 = PRODUCT_DEFINITION ( 'UNKNOWN', '', #51, #118 ) ;
#35 = AXIS2_PLACEMENT_3D ( 'NONE', #59, #77, #54 ) ;
#36 = EDGE_LOOP ( 'NONE', ( #15 ) ) ;
#37 = PERSON ( 'UNSPECIFIED', 'UNSPECIFIED', 'UNSPECIFIED', ('UNSPECIFIED'), ('UNSPECIFIED'), ('UNSPECIFIED') ) ;
#38 = CC_DESIGN_APPROVAL ( #86, ( #34 ) ) ;
#39 = DIRECTION ( 'NONE',  ( -6.831735839737831805E-31, -1.000000000000000000, -1.922962686383560119E-16 ) ) ;
#40 = CARTESIAN_POINT ( 'NONE',  ( 9.071134608832348896E-15, 1.499999999999999556, 2.598076211353309795 ) ) ;
#41 = PERSON_AND_ORGANIZATION_ROLE ( 'creator' ) ;
#42 = DIRECTION ( 'NONE',  ( -3.491481338843133355E-15, 1.224646799147353207E-16, -1.000000000000000000 ) ) ;
#43 = PRODUCT_RELATED_PRODUCT_CATEGORY ( 'detail', '', ( #76 ) ) ;
#44 = CARTESIAN_POINT ( 'NONE',  ( 0.0000000000000000000, 0.0000000000000000000, 0.0000000000000000000 ) ) ;
#45 = EDGE_LOOP ( 'NONE', ( #163 ) ) ;
#46 = CLOSED_SHELL ( 'NONE', ( #116, #28, #134, #162 ) ) ;
#47 = PERSON_AND_ORGANIZATION ( #37, #66 ) ;
#48 = APPROVAL ( #180, 'UNSPECIFIED' ) ;
#49 = APPROVAL_STATUS ( 'not_yet_approved' ) ;
#50 = APPROVAL_ROLE ( '' ) ;
#51 = PRODUCT_DEFINITION_FORMATION_WITH_SPECIFIED_SOURCE ( 'ANY', '', #76, .NOT_KNOWN. ) ;
#52 = FACE_OUTER_BOUND ( 'NONE', #107, .T. ) ;
#53 = EDGE_CURVE ( 'NONE', #56, #56, #2, .T. ) ;
#54 = DIRECTION ( 'NONE',  ( 0.0000000000000000000, 1.000000000000000000, 0.0000000000000000000 ) ) ;
#55 = AXIS2_PLACEMENT_3D ( 'NONE', #144, #23, #7 ) ;
#56 = VERTEX_POINT ( 'NONE', #40 ) ;
#57 =( NAMED_UNIT ( * ) PLANE_ANGLE_UNIT ( ) SI_UNIT ( $, .RADIAN. ) );
#58 = CC_DESIGN_PERSON_AND_ORGANIZATION_ASSIGNMENT ( #24, #166, ( #51 ) ) ;
#59 = CARTESIAN_POINT ( 'NONE',  ( 9.071134608832348896E-15, -3.181725716174713102E-16, 2.598076211353309795 ) ) ;
#60 = DIRECTION ( 'NONE',  ( 1.000000000000000000, 0.0000000000000000000, 0.0000000000000000000 ) ) ;
#61 = CARTESIAN_POINT ( 'NONE',  ( 1.326762908760390423E-13, -4.653657836759941941E-15, 38.00000000000000000 ) ) ;
#62 = SECURITY_CLASSIFICATION_LEVEL ( 'unclassified' ) ;
#63 = LOCAL_TIME ( 7, 47, 3.000000000000000000, #157 ) ;
#64 = DIRECTION ( 'NONE',  ( 3.491481338843133355E-15, -1.224646799147353207E-16, 1.000000000000000000 ) ) ;
#65 = DIRECTION ( 'NONE',  ( -3.491481338843133355E-15, 1.224646799147353207E-16, -1.000000000000000000 ) ) ;
#66 = ORGANIZATION ( 'UNSPECIFIED', 'UNSPECIFIED', '' ) ;
#67 = PLANE ( 'NONE',  #161 ) ;
#68 = PERSON_AND_ORGANIZATION ( #37, #66 ) ;
#69 = PLANE ( 'NONE',  #32 ) ;
#70 = COORDINATED_UNIVERSAL_TIME_OFFSET ( 1, 0, .AHEAD. ) ;
#71 =( GEOMETRIC_REPRESENTATION_CONTEXT ( 3 ) GLOBAL_UNCERTAINTY_ASSIGNED_CONTEXT ( ( #16 ) ) GLOBAL_UNIT_ASSIGNED_CONTEXT ( ( #114, #57, #88 ) ) REPRESENTATION_CONTEXT ( 'NONE', 'WORKASPACE' ) );
#72 = DATE_TIME_ROLE ( 'creation_date' ) ;
#73 = COORDINATED_UNIVERSAL_TIME_OFFSET ( 1, 0, .AHEAD. ) ;
#74 = APPROVAL_DATE_TIME ( #103, #75 ) ;
#75 = APPROVAL ( #125, 'UNSPECIFIED' ) ;
#76 = PRODUCT ( '310782', '310782', '', ( #98 ) ) ;
#77 = DIRECTION ( 'NONE',  ( -3.491481338843133355E-15, 1.224646799147353207E-16, -1.000000000000000000 ) ) ;
#78 = AXIS2_PLACEMENT_3D ( 'NONE', #92, #80, #90 ) ;
#79 = FACE_OUTER_BOUND ( 'NONE', #45, .T. ) ;
#80 = DIRECTION ( 'NONE',  ( 3.491481338843133355E-15, -1.224646799147353207E-16, 1.000000000000000000 ) ) ;
#81 = DATE_AND_TIME ( #145, #141 ) ;
#82 = FACE_OUTER_BOUND ( 'NONE', #91, .T. ) ;
#83 = DATE_TIME_ROLE ( 'classification_date' ) ;
#84 = DIRECTION ( 'NONE',  ( -3.491481338843133355E-15, 1.224646799147353207E-16, -1.000000000000000000 ) ) ;
#85 = PERSON_AND_ORGANIZATION_ROLE ( 'classification_officer' ) ;
#86 = APPROVAL ( #49, 'UNSPECIFIED' ) ;
#87 = VERTEX_POINT ( 'NONE', #183 ) ;
#88 =( NAMED_UNIT ( * ) SI_UNIT ( $, .STERADIAN. ) SOLID_ANGLE_UNIT ( ) );
#89 = APPROVAL_PERSON_ORGANIZATION ( #68, #75, #50 ) ;
#90 = DIRECTION ( 'NONE',  ( -4.275831445896958607E-31, -1.000000000000000000, -1.224646799147353207E-16 ) ) ;
#91 = EDGE_LOOP ( 'NONE', ( #152 ) ) ;
#92 = CARTESIAN_POINT ( 'NONE',  ( 9.071134608832347318E-15, -7.511572993685778393E-16, 2.598076211353309350 ) ) ;
#93 = CALENDAR_DATE ( 2021, 25, 11 ) ;
#94 = CARTESIAN_POINT ( 'NONE',  ( 9.071134608832347318E-15, -7.511572993685778393E-16, 2.598076211353309350 ) ) ;
#95 = LOCAL_TIME ( 7, 47, 3.000000000000000000, #73 ) ;
#96 = CARTESIAN_POINT ( 'NONE',  ( 0.0000000000000000000, 0.0000000000000000000, 0.0000000000000000000 ) ) ;
#97 = PERSON_AND_ORGANIZATION ( #37, #66 ) ;
#98 = MECHANICAL_CONTEXT ( 'NONE', #123, 'mechanical' ) ;
#99 = COORDINATED_UNIVERSAL_TIME_OFFSET ( 1, 0, .AHEAD. ) ;
#100 = CIRCLE ( 'NONE', #26, 1.499999999999999778 ) ;
#101 = CC_DESIGN_PERSON_AND_ORGANIZATION_ASSIGNMENT ( #47, #142, ( #76 ) ) ;
#102 = MANIFOLD_SOLID_BREP ( 'Corps-Déplacer/Copier1[1]', #46 ) ;
#103 = DATE_AND_TIME ( #181, #95 ) ;
#104 = MANIFOLD_SOLID_BREP ( 'Corps-Déplacer/Copier1[2]', #109 ) ;
#105 = ADVANCED_FACE ( 'NONE', ( #52 ), #112, .T. ) ;
#106 = CONICAL_SURFACE ( 'NONE', #147, 577.3502691896269425, 0.5235987755982998149 ) ;
#107 = EDGE_LOOP ( 'NONE', ( #5 ) ) ;
#108 = CARTESIAN_POINT ( 'NONE',  ( 9.071134608832348896E-15, -3.181725716174713102E-16, 2.598076211353309795 ) ) ;
#109 = CLOSED_SHELL ( 'NONE', ( #182, #105 ) ) ;
#110 = EDGE_LOOP ( 'NONE', ( #9 ) ) ;
#111 = COORDINATED_UNIVERSAL_TIME_OFFSET ( 1, 0, .AHEAD. ) ;
#112 = PLANE ( 'NONE',  #78 ) ;
#113 = CARTESIAN_POINT ( 'NONE',  ( 1.326762908760390423E-13, 8.998558695971082698E-33, 38.00000000000000000 ) ) ;
#114 =( LENGTH_UNIT ( ) NAMED_UNIT ( * ) SI_UNIT ( .MILLI., .METRE. ) );
#115 = VERTEX_POINT ( 'NONE', #33 ) ;
#116 = ADVANCED_FACE ( 'NONE', ( #140 ), #69, .F. ) ;
#117 = CC_DESIGN_DATE_AND_TIME_ASSIGNMENT ( #8, #83, ( #171 ) ) ;
#118 = DESIGN_CONTEXT ( 'detailed design', #133, 'design' ) ;
#119 = DIRECTION ( 'NONE',  ( 4.275831445896958607E-31, 1.000000000000000000, 1.224646799147353207E-16 ) ) ;
#120 = CC_DESIGN_PERSON_AND_ORGANIZATION_ASSIGNMENT ( #6, #41, ( #51 ) ) ;
#121 = VERTEX_POINT ( 'NONE', #174 ) ;
#122 = DATE_AND_TIME ( #93, #63 ) ;
#123 = APPLICATION_CONTEXT ( 'configuration controlled 3d designs of mechanical parts and assemblies' ) ;
#124 = ORIENTED_EDGE ( 'NONE', *, *, #53, .T. ) ;
#125 = APPROVAL_STATUS ( 'not_yet_approved' ) ;
#126 = EDGE_LOOP ( 'NONE', ( #167 ) ) ;
#127 = CALENDAR_DATE ( 2021, 25, 11 ) ;
#128 = CALENDAR_DATE ( 2021, 25, 11 ) ;
#129 = LOCAL_TIME ( 7, 47, 3.000000000000000000, #99 ) ;
#130 = APPROVAL_ROLE ( '' ) ;
#131 = EDGE_CURVE ( 'NONE', #87, #87, #100, .T. ) ;
#132 = CIRCLE ( 'NONE', #175, 1.200000000000000844 ) ;
#133 = APPLICATION_CONTEXT ( 'configuration controlled 3d designs of mechanical parts and assemblies' ) ;
#134 = ADVANCED_FACE ( 'NONE', ( #149, #138 ), #178, .T. ) ;
#135 = FACE_OUTER_BOUND ( 'NONE', #151, .T. ) ;
#136 = AXIS2_PLACEMENT_3D ( 'NONE', #96, #165, #4 ) ;
#137 = FACE_OUTER_BOUND ( 'NONE', #110, .T. ) ;
#138 = FACE_OUTER_BOUND ( 'NONE', #126, .T. ) ;
#139 = APPROVAL_DATE_TIME ( #81, #48 ) ;
#140 = FACE_OUTER_BOUND ( 'NONE', #176, .T. ) ;
#141 = LOCAL_TIME ( 7, 47, 3.000000000000000000, #111 ) ;
#142 = PERSON_AND_ORGANIZATION_ROLE ( 'design_owner' ) ;
#143 = EDGE_CURVE ( 'NONE', #115, #115, #132, .T. ) ;
#144 = CARTESIAN_POINT ( 'NONE',  ( 1.316288464743861212E-13, -4.616918432785521081E-15, 37.69999999999999574 ) ) ;
#145 = CALENDAR_DATE ( 2021, 25, 11 ) ;
#146 = PERSON_AND_ORGANIZATION ( #37, #66 ) ;
#147 = AXIS2_PLACEMENT_3D ( 'NONE', #164, #64, #39 ) ;
#148 = CC_DESIGN_DATE_AND_TIME_ASSIGNMENT ( #122, #72, ( #34 ) ) ;
#149 = FACE_BOUND ( 'NONE', #36, .T. ) ;
#150 = PRODUCT_DEFINITION_SHAPE ( 'NONE', 'NONE',  #34 ) ;
#151 = EDGE_LOOP ( 'NONE', ( #18 ) ) ;
#152 = ORIENTED_EDGE ( 'NONE', *, *, #30, .T. ) ;
#153 = CC_DESIGN_PERSON_AND_ORGANIZATION_ASSIGNMENT ( #154, #85, ( #171 ) ) ;
#154 = PERSON_AND_ORGANIZATION ( #37, #66 ) ;
#155 = DIRECTION ( 'NONE',  ( 3.491481338843133355E-15, -1.224646799147353207E-16, 1.000000000000000000 ) ) ;
#156 = APPROVAL_PERSON_ORGANIZATION ( #22, #48, #130 ) ;
#157 = COORDINATED_UNIVERSAL_TIME_OFFSET ( 1, 0, .AHEAD. ) ;
#158 = CC_DESIGN_APPROVAL ( #48, ( #51 ) ) ;
#159 = CIRCLE ( 'NONE', #11, 1.499999999999998890 ) ;
#160 = CC_DESIGN_PERSON_AND_ORGANIZATION_ASSIGNMENT ( #146, #12, ( #34 ) ) ;
#161 = AXIS2_PLACEMENT_3D ( 'NONE', #113, #3, #119 ) ;
#162 = ADVANCED_FACE ( 'NONE', ( #79 ), #67, .F. ) ;
#163 = ORIENTED_EDGE ( 'NONE', *, *, #143, .F. ) ;
#164 = CARTESIAN_POINT ( 'NONE',  ( 3.491481338843133254E-12, -1.224646799147353249E-13, 1000.000000000000000 ) ) ;
#165 = DIRECTION ( 'NONE',  ( -3.491481338843133355E-15, 1.224646799147353207E-16, -1.000000000000000000 ) ) ;
#166 = PERSON_AND_ORGANIZATION_ROLE ( 'design_supplier' ) ;
#167 = ORIENTED_EDGE ( 'NONE', *, *, #30, .F. ) ;
#168 = APPLICATION_PROTOCOL_DEFINITION ( 'international standard', 'config_control_design', 1994, #123 ) ;
#169 = CARTESIAN_POINT ( 'NONE',  ( 1.316288464743861212E-13, -4.616918432785521081E-15, 37.69999999999999574 ) ) ;
#170 = DIRECTION ( 'NONE',  ( 0.0000000000000000000, 0.0000000000000000000, 1.000000000000000000 ) ) ;
#171 = SECURITY_CLASSIFICATION ( '', '', #62 ) ;
#172 = LOCAL_TIME ( 7, 47, 3.000000000000000000, #70 ) ;
#173 = DIRECTION ( 'NONE',  ( 0.0000000000000000000, 1.000000000000000000, 0.0000000000000000000 ) ) ;
#174 = CARTESIAN_POINT ( 'NONE',  ( 1.316288464743861212E-13, 1.499999999999994449, 37.69999999999999574 ) ) ;
#175 = AXIS2_PLACEMENT_3D ( 'NONE', #61, #84, #20 ) ;
#176 = EDGE_LOOP ( 'NONE', ( #124 ) ) ;
#177 = DIRECTION ( 'NONE',  ( -4.275831445896958607E-31, -1.000000000000000000, -1.224646799147353207E-16 ) ) ;
#178 = CONICAL_SURFACE ( 'NONE', #55, 1.499999999999998890, 0.7853981633974425058 ) ;
#179 = APPROVAL_ROLE ( '' ) ;
#180 = APPROVAL_STATUS ( 'not_yet_approved' ) ;
#181 = CALENDAR_DATE ( 2021, 25, 11 ) ;
#182 = ADVANCED_FACE ( 'NONE', ( #137 ), #106, .T. ) ;
#183 = CARTESIAN_POINT ( 'NONE',  ( 9.071134608832348896E-15, 1.499999999999999556, 2.598076211353309795 ) ) ;
ENDSEC;
END-ISO-10303-21;
