ISO-10303-21;
HEADER;
FILE_DESCRIPTION (( 'STEP AP203' ),
    '1' );
FILE_NAME ('30940.step',
    '2021-11-09T08:31:30',
    ( '' ),
    ( '' ),
    'SwSTEP 2.0',
    'SolidWorks 2019',
    '' );
FILE_SCHEMA (( 'CONFIG_CONTROL_DESIGN' ));
ENDSEC;

DATA;
#1 = VERTEX_POINT ( 'NONE', #32 ) ;
#2 = PERSON_AND_ORGANIZATION ( #141, #12 ) ;
#3 = CALENDAR_DATE ( 2021, 9, 11 ) ;
#4 = LOCAL_TIME ( 9, 31, 30.00000000000000000, #11 ) ;
#5 = SECURITY_CLASSIFICATION_LEVEL ( 'unclassified' ) ;
#6 = FACE_OUTER_BOUND ( 'NONE', #108, .T. ) ;
#7 = APPLICATION_CONTEXT ( 'configuration controlled 3d designs of mechanical parts and assemblies' ) ;
#8 = ORIENTED_EDGE ( 'NONE', *, *, #126, .T. ) ;
#9 = DIRECTION ( 'NONE',  ( 3.491481338843133355E-15, -1.224646799147353207E-16, 1.000000000000000000 ) ) ;
#10 = CARTESIAN_POINT ( 'NONE',  ( 7.681258945454893382E-14, 5.999999999999992895, 22.00000000000000000 ) ) ;
#11 = COORDINATED_UNIVERSAL_TIME_OFFSET ( 1, 0, .AHEAD. ) ;
#12 = ORGANIZATION ( 'UNSPECIFIED', 'UNSPECIFIED', '' ) ;
#13 =( NAMED_UNIT ( * ) PLANE_ANGLE_UNIT ( ) SI_UNIT ( $, .RADIAN. ) );
#14 = DIRECTION ( 'NONE',  ( 0.0000000000000000000, 0.0000000000000000000, 1.000000000000000000 ) ) ;
#15 = DIRECTION ( 'NONE',  ( 0.0000000000000000000, 1.000000000000000000, 0.0000000000000000000 ) ) ;
#16 = AXIS2_PLACEMENT_3D ( 'NONE', #17, #144, #166 ) ;
#17 = CARTESIAN_POINT ( 'NONE',  ( 7.681258945454893382E-14, 4.499279347985565708E-32, 22.00000000000000000 ) ) ;
#18 = ADVANCED_BREP_SHAPE_REPRESENTATION ( '30940', ( #163, #24, #171 ), #187 ) ;
#19 = PRODUCT_DEFINITION ( 'UNKNOWN', '', #107, #158 ) ;
#20 =( LENGTH_UNIT ( ) NAMED_UNIT ( * ) SI_UNIT ( .MILLI., .METRE. ) );
#21 = APPROVAL_STATUS ( 'not_yet_approved' ) ;
#22 = LOCAL_TIME ( 9, 31, 30.00000000000000000, #198 ) ;
#23 = CC_DESIGN_PERSON_AND_ORGANIZATION_ASSIGNMENT ( #182, #73, ( #107 ) ) ;
#24 = MANIFOLD_SOLID_BREP ( 'Corps-Déplacer/Copier1[2]', #26 ) ;
#25 = DATE_TIME_ROLE ( 'classification_date' ) ;
#26 = CLOSED_SHELL ( 'NONE', ( #31, #83, #64 ) ) ;
#27 = CIRCLE ( 'NONE', #94, 5.999999999999995559 ) ;
#28 = DIRECTION ( 'NONE',  ( 4.275831445896958607E-31, 1.000000000000000000, 1.224646799147353207E-16 ) ) ;
#29 = EDGE_LOOP ( 'NONE', ( #37 ) ) ;
#30 = CARTESIAN_POINT ( 'NONE',  ( 7.681258945454893382E-14, -2.694222958124176809E-15, 22.00000000000000000 ) ) ;
#31 = ADVANCED_FACE ( 'NONE', ( #87 ), #113, .F. ) ;
#32 = CARTESIAN_POINT ( 'NONE',  ( 1.068961373821330135E-30, 5.999999999999992895, 3.061627057630270272E-16 ) ) ;
#33 = APPROVAL_STATUS ( 'not_yet_approved' ) ;
#34 = FACE_OUTER_BOUND ( 'NONE', #137, .T. ) ;
#35 = PLANE ( 'NONE',  #16 ) ;
#36 = APPLICATION_PROTOCOL_DEFINITION ( 'international standard', 'config_control_design', 1994, #7 ) ;
#37 = ORIENTED_EDGE ( 'NONE', *, *, #154, .F. ) ;
#38 = DIRECTION ( 'NONE',  ( 3.491481338843133355E-15, -1.224646799147353207E-16, 1.000000000000000000 ) ) ;
#39 = APPROVAL_STATUS ( 'not_yet_approved' ) ;
#40 = PERSON_AND_ORGANIZATION ( #141, #12 ) ;
#41 = APPROVAL_PERSON_ORGANIZATION ( #168, #188, #91 ) ;
#42 = DATE_AND_TIME ( #152, #22 ) ;
#43 = COORDINATED_UNIVERSAL_TIME_OFFSET ( 1, 0, .AHEAD. ) ;
#44 = APPROVAL ( #21, 'UNSPECIFIED' ) ;
#45 = AXIS2_PLACEMENT_3D ( 'NONE', #102, #176, #128 ) ;
#46 = ORIENTED_EDGE ( 'NONE', *, *, #126, .F. ) ;
#47 = PERSON_AND_ORGANIZATION ( #141, #12 ) ;
#48 = UNCERTAINTY_MEASURE_WITH_UNIT (LENGTH_MEASURE( 1.000000000000000082E-05 ), #20, 'distance_accuracy_value', 'NONE');
#49 = DIRECTION ( 'NONE',  ( -3.491481338843133355E-15, 1.224646799147353207E-16, -1.000000000000000000 ) ) ;
#50 = EDGE_CURVE ( 'NONE', #1, #1, #54, .T. ) ;
#51 = APPROVAL_DATE_TIME ( #148, #44 ) ;
#52 = PRODUCT_RELATED_PRODUCT_CATEGORY ( 'detail', '', ( #105 ) ) ;
#53 = COORDINATED_UNIVERSAL_TIME_OFFSET ( 1, 0, .AHEAD. ) ;
#54 = CIRCLE ( 'NONE', #45, 5.999999999999992895 ) ;
#55 = AXIS2_PLACEMENT_3D ( 'NONE', #77, #96, #140 ) ;
#56 = DATE_AND_TIME ( #3, #103 ) ;
#57 = FACE_OUTER_BOUND ( 'NONE', #124, .T. ) ;
#58 = ORIENTED_EDGE ( 'NONE', *, *, #154, .T. ) ;
#59 = EDGE_CURVE ( 'NONE', #189, #189, #160, .T. ) ;
#60 = DIRECTION ( 'NONE',  ( 4.275831445896958607E-31, 1.000000000000000000, 1.224646799147353207E-16 ) ) ;
#61 = CC_DESIGN_PERSON_AND_ORGANIZATION_ASSIGNMENT ( #47, #142, ( #105 ) ) ;
#62 = ADVANCED_FACE ( 'NONE', ( #145, #85 ), #200, .T. ) ;
#63 = DATE_AND_TIME ( #201, #4 ) ;
#64 = ADVANCED_FACE ( 'NONE', ( #115 ), #35, .T. ) ;
#65 = CARTESIAN_POINT ( 'NONE',  ( 7.681258945454893382E-14, 5.999999999999992895, 22.00000000000000000 ) ) ;
#66 = CARTESIAN_POINT ( 'NONE',  ( 2.548781377355487223E-13, -8.939921633775676859E-15, 73.00000000000000000 ) ) ;
#67 = CC_DESIGN_APPROVAL ( #44, ( #183 ) ) ;
#68 = DATE_TIME_ROLE ( 'creation_date' ) ;
#69 = DIRECTION ( 'NONE',  ( -3.491481338843133355E-15, 1.224646799147353207E-16, -1.000000000000000000 ) ) ;
#70 = EDGE_CURVE ( 'NONE', #194, #194, #135, .T. ) ;
#71 = APPROVAL_ROLE ( '' ) ;
#72 = APPROVAL ( #33, 'UNSPECIFIED' ) ;
#73 = PERSON_AND_ORGANIZATION_ROLE ( 'design_supplier' ) ;
#74 = CYLINDRICAL_SURFACE ( 'NONE', #150, 5.999999999999998224 ) ;
#75 = FACE_OUTER_BOUND ( 'NONE', #174, .T. ) ;
#76 = DIRECTION ( 'NONE',  ( -4.275831445896958607E-31, -1.000000000000000000, -1.224646799147353207E-16 ) ) ;
#77 = CARTESIAN_POINT ( 'NONE',  ( 0.0000000000000000000, 0.0000000000000000000, 0.0000000000000000000 ) ) ;
#78 = ADVANCED_FACE ( 'NONE', ( #57 ), #136, .F. ) ;
#79 = CARTESIAN_POINT ( 'NONE',  ( 7.681258945454893382E-14, 4.499279347985565708E-32, 22.00000000000000000 ) ) ;
#80 = DIRECTION ( 'NONE',  ( 1.000000000000000000, 0.0000000000000000000, 0.0000000000000000000 ) ) ;
#81 = CC_DESIGN_PERSON_AND_ORGANIZATION_ASSIGNMENT ( #88, #106, ( #107 ) ) ;
#82 = DIRECTION ( 'NONE',  ( -3.491481338843133355E-15, 1.224646799147353207E-16, -1.000000000000000000 ) ) ;
#83 = ADVANCED_FACE ( 'NONE', ( #34, #139 ), #127, .T. ) ;
#84 = VERTEX_POINT ( 'NONE', #65 ) ;
#85 = FACE_BOUND ( 'NONE', #133, .T. ) ;
#86 = LOCAL_TIME ( 9, 31, 30.00000000000000000, #149 ) ;
#87 = FACE_OUTER_BOUND ( 'NONE', #147, .T. ) ;
#88 = PERSON_AND_ORGANIZATION ( #141, #12 ) ;
#89 = CC_DESIGN_PERSON_AND_ORGANIZATION_ASSIGNMENT ( #170, #122, ( #19 ) ) ;
#90 = AXIS2_PLACEMENT_3D ( 'NONE', #79, #9, #76 ) ;
#91 = APPROVAL_ROLE ( '' ) ;
#92 = ORIENTED_EDGE ( 'NONE', *, *, #59, .T. ) ;
#93 = AXIS2_PLACEMENT_3D ( 'NONE', #192, #38, #164 ) ;
#94 = AXIS2_PLACEMENT_3D ( 'NONE', #186, #109, #175 ) ;
#95 = DIRECTION ( 'NONE',  ( 0.0000000000000000000, 1.000000000000000000, 0.0000000000000000000 ) ) ;
#96 = DIRECTION ( 'NONE',  ( -3.491481338843133355E-15, 1.224646799147353207E-16, -1.000000000000000000 ) ) ;
#97 = MECHANICAL_CONTEXT ( 'NONE', #132, 'mechanical' ) ;
#98 = ORIENTED_EDGE ( 'NONE', *, *, #70, .T. ) ;
#99 = EDGE_LOOP ( 'NONE', ( #46 ) ) ;
#100 = AXIS2_PLACEMENT_3D ( 'NONE', #203, #69, #134 ) ;
#101 = DIRECTION ( 'NONE',  ( -3.491481338843133355E-15, 1.224646799147353207E-16, -1.000000000000000000 ) ) ;
#102 = CARTESIAN_POINT ( 'NONE',  ( -1.496537493716842226E-30, 5.249146919661295984E-32, -4.286253737253840589E-16 ) ) ;
#103 = LOCAL_TIME ( 9, 31, 30.00000000000000000, #43 ) ;
#104 = CALENDAR_DATE ( 2021, 9, 11 ) ;
#105 = PRODUCT ( '30940', '30940', '', ( #97 ) ) ;
#106 = PERSON_AND_ORGANIZATION_ROLE ( 'creator' ) ;
#107 = PRODUCT_DEFINITION_FORMATION_WITH_SPECIFIED_SOURCE ( 'ANY', '', #105, .NOT_KNOWN. ) ;
#108 = EDGE_LOOP ( 'NONE', ( #98 ) ) ;
#109 = DIRECTION ( 'NONE',  ( -3.491481338843133355E-15, 1.224646799147353207E-16, -1.000000000000000000 ) ) ;
#110 = ADVANCED_FACE ( 'NONE', ( #75 ), #123, .F. ) ;
#111 = APPROVAL_PERSON_ORGANIZATION ( #112, #72, #159 ) ;
#112 = PERSON_AND_ORGANIZATION ( #141, #12 ) ;
#113 = PLANE ( 'NONE',  #93 ) ;
#114 = VERTEX_POINT ( 'NONE', #10 ) ;
#115 = FACE_OUTER_BOUND ( 'NONE', #29, .T. ) ;
#116 = AXIS2_PLACEMENT_3D ( 'NONE', #173, #156, #28 ) ;
#117 = EDGE_LOOP ( 'NONE', ( #184 ) ) ;
#118 = ADVANCED_FACE ( 'NONE', ( #153, #6 ), #74, .T. ) ;
#119 = ORIENTED_EDGE ( 'NONE', *, *, #59, .F. ) ;
#120 = CALENDAR_DATE ( 2021, 9, 11 ) ;
#121 = APPROVAL_DATE_TIME ( #63, #72 ) ;
#122 = PERSON_AND_ORGANIZATION_ROLE ( 'creator' ) ;
#123 = PLANE ( 'NONE',  #116 ) ;
#124 = EDGE_LOOP ( 'NONE', ( #8 ) ) ;
#125 = CARTESIAN_POINT ( 'NONE',  ( 0.0000000000000000000, 0.0000000000000000000, 0.0000000000000000000 ) ) ;
#126 = EDGE_CURVE ( 'NONE', #84, #84, #27, .T. ) ;
#127 = CYLINDRICAL_SURFACE ( 'NONE', #55, 5.999999999999994671 ) ;
#128 = DIRECTION ( 'NONE',  ( 4.275831445896958607E-31, 1.000000000000000000, 1.224646799147353207E-16 ) ) ;
#129 = CARTESIAN_POINT ( 'NONE',  ( 2.548781377355487223E-13, 5.499999999999992895, 73.00000000000000000 ) ) ;
#130 = EDGE_LOOP ( 'NONE', ( #58 ) ) ;
#131 = CARTESIAN_POINT ( 'NONE',  ( 2.548781377355487223E-13, -8.939921633775676859E-15, 73.00000000000000000 ) ) ;
#132 = APPLICATION_CONTEXT ( 'configuration controlled 3d designs of mechanical parts and assemblies' ) ;
#133 = EDGE_LOOP ( 'NONE', ( #92 ) ) ;
#134 = DIRECTION ( 'NONE',  ( 0.0000000000000000000, 1.000000000000000000, 0.0000000000000000000 ) ) ;
#135 = CIRCLE ( 'NONE', #100, 6.000000000000001776 ) ;
#136 = PLANE ( 'NONE',  #90 ) ;
#137 = EDGE_LOOP ( 'NONE', ( #155 ) ) ;
#138 = DIRECTION ( 'NONE',  ( -3.491481338843133355E-15, 1.224646799147353207E-16, -1.000000000000000000 ) ) ;
#139 = FACE_OUTER_BOUND ( 'NONE', #130, .T. ) ;
#140 = DIRECTION ( 'NONE',  ( 4.275831445896958607E-31, 1.000000000000000000, 1.224646799147353207E-16 ) ) ;
#141 = PERSON ( 'UNSPECIFIED', 'UNSPECIFIED', 'UNSPECIFIED', ('UNSPECIFIED'), ('UNSPECIFIED'), ('UNSPECIFIED') ) ;
#142 = PERSON_AND_ORGANIZATION_ROLE ( 'design_owner' ) ;
#143 = CIRCLE ( 'NONE', #161, 5.999999999999995559 ) ;
#144 = DIRECTION ( 'NONE',  ( 3.491481338843133355E-15, -1.224646799147353207E-16, 1.000000000000000000 ) ) ;
#145 = FACE_OUTER_BOUND ( 'NONE', #117, .T. ) ;
#146 =( NAMED_UNIT ( * ) SI_UNIT ( $, .STERADIAN. ) SOLID_ANGLE_UNIT ( ) );
#147 = EDGE_LOOP ( 'NONE', ( #199 ) ) ;
#148 = DATE_AND_TIME ( #104, #197 ) ;
#149 = COORDINATED_UNIVERSAL_TIME_OFFSET ( 1, 0, .AHEAD. ) ;
#150 = AXIS2_PLACEMENT_3D ( 'NONE', #125, #138, #60 ) ;
#151 = CC_DESIGN_DATE_AND_TIME_ASSIGNMENT ( #180, #68, ( #19 ) ) ;
#152 = CALENDAR_DATE ( 2021, 9, 11 ) ;
#153 = FACE_OUTER_BOUND ( 'NONE', #99, .T. ) ;
#154 = EDGE_CURVE ( 'NONE', #114, #114, #143, .T. ) ;
#155 = ORIENTED_EDGE ( 'NONE', *, *, #50, .F. ) ;
#156 = DIRECTION ( 'NONE',  ( -3.491481338843133355E-15, 1.224646799147353207E-16, -1.000000000000000000 ) ) ;
#157 = CARTESIAN_POINT ( 'NONE',  ( 2.531323970661271619E-13, 5.999999999999992895, 72.50000000000000000 ) ) ;
#158 = DESIGN_CONTEXT ( 'detailed design', #7, 'design' ) ;
#159 = APPROVAL_ROLE ( '' ) ;
#160 = CIRCLE ( 'NONE', #190, 5.500000000000001776 ) ;
#161 = AXIS2_PLACEMENT_3D ( 'NONE', #30, #82, #95 ) ;
#162 = CC_DESIGN_DATE_AND_TIME_ASSIGNMENT ( #56, #25, ( #183 ) ) ;
#163 = MANIFOLD_SOLID_BREP ( 'Corps-Déplacer/Copier1[1]', #165 ) ;
#164 = DIRECTION ( 'NONE',  ( -4.275831445896958607E-31, -1.000000000000000000, -1.224646799147353207E-16 ) ) ;
#165 = CLOSED_SHELL ( 'NONE', ( #78, #118, #62, #110 ) ) ;
#166 = DIRECTION ( 'NONE',  ( -4.275831445896958607E-31, -1.000000000000000000, -1.224646799147353207E-16 ) ) ;
#167 = CARTESIAN_POINT ( 'NONE',  ( 0.0000000000000000000, 0.0000000000000000000, 0.0000000000000000000 ) ) ;
#168 = PERSON_AND_ORGANIZATION ( #141, #12 ) ;
#169 = SHAPE_DEFINITION_REPRESENTATION ( #178, #18 ) ;
#170 = PERSON_AND_ORGANIZATION ( #141, #12 ) ;
#171 = AXIS2_PLACEMENT_3D ( 'NONE', #167, #14, #80 ) ;
#172 = APPROVAL_DATE_TIME ( #42, #188 ) ;
#173 = CARTESIAN_POINT ( 'NONE',  ( 2.548781377355487223E-13, 4.124339402320096927E-32, 73.00000000000000000 ) ) ;
#174 = EDGE_LOOP ( 'NONE', ( #119 ) ) ;
#175 = DIRECTION ( 'NONE',  ( 0.0000000000000000000, 1.000000000000000000, 0.0000000000000000000 ) ) ;
#176 = DIRECTION ( 'NONE',  ( -3.491481338843133355E-15, 1.224646799147353207E-16, -1.000000000000000000 ) ) ;
#177 = APPLICATION_PROTOCOL_DEFINITION ( 'international standard', 'config_control_design', 1994, #132 ) ;
#178 = PRODUCT_DEFINITION_SHAPE ( 'NONE', 'NONE',  #19 ) ;
#179 = AXIS2_PLACEMENT_3D ( 'NONE', #131, #101, #191 ) ;
#180 = DATE_AND_TIME ( #120, #86 ) ;
#181 = CC_DESIGN_APPROVAL ( #188, ( #107 ) ) ;
#182 = PERSON_AND_ORGANIZATION ( #141, #12 ) ;
#183 = SECURITY_CLASSIFICATION ( '', '', #5 ) ;
#184 = ORIENTED_EDGE ( 'NONE', *, *, #70, .F. ) ;
#185 = APPROVAL_PERSON_ORGANIZATION ( #2, #44, #71 ) ;
#186 = CARTESIAN_POINT ( 'NONE',  ( 7.681258945454893382E-14, -2.694222958124176809E-15, 22.00000000000000000 ) ) ;
#187 =( GEOMETRIC_REPRESENTATION_CONTEXT ( 3 ) GLOBAL_UNCERTAINTY_ASSIGNED_CONTEXT ( ( #48 ) ) GLOBAL_UNIT_ASSIGNED_CONTEXT ( ( #20, #13, #146 ) ) REPRESENTATION_CONTEXT ( 'NONE', 'WORKASPACE' ) );
#188 = APPROVAL ( #39, 'UNSPECIFIED' ) ;
#189 = VERTEX_POINT ( 'NONE', #129 ) ;
#190 = AXIS2_PLACEMENT_3D ( 'NONE', #66, #49, #15 ) ;
#191 = DIRECTION ( 'NONE',  ( 0.0000000000000000000, 1.000000000000000000, 0.0000000000000000000 ) ) ;
#192 = CARTESIAN_POINT ( 'NONE',  ( -7.482687468584211131E-31, 2.624573459830647992E-32, -2.143126868626920294E-16 ) ) ;
#193 = CC_DESIGN_APPROVAL ( #72, ( #19 ) ) ;
#194 = VERTEX_POINT ( 'NONE', #157 ) ;
#195 = PERSON_AND_ORGANIZATION_ROLE ( 'classification_officer' ) ;
#196 = CC_DESIGN_PERSON_AND_ORGANIZATION_ASSIGNMENT ( #40, #195, ( #183 ) ) ;
#197 = LOCAL_TIME ( 9, 31, 30.00000000000000000, #53 ) ;
#198 = COORDINATED_UNIVERSAL_TIME_OFFSET ( 1, 0, .AHEAD. ) ;
#199 = ORIENTED_EDGE ( 'NONE', *, *, #50, .T. ) ;
#200 = CONICAL_SURFACE ( 'NONE', #179, 5.500000000000001776, 0.7853981633974482790 ) ;
#201 = CALENDAR_DATE ( 2021, 9, 11 ) ;
#202 = CC_DESIGN_SECURITY_CLASSIFICATION ( #183, ( #107 ) ) ;
#203 = CARTESIAN_POINT ( 'NONE',  ( 2.531323970661271619E-13, -8.878689293818309285E-15, 72.50000000000000000 ) ) ;
ENDSEC;
END-ISO-10303-21;
