ISO-10303-21;
HEADER;
FILE_DESCRIPTION (( 'STEP AP203' ),
    '1' );
FILE_NAME ('30938.step',
    '2021-11-12T10:08:55',
    ( '' ),
    ( '' ),
    'SwSTEP 2.0',
    'SolidWorks 2019',
    '' );
FILE_SCHEMA (( 'CONFIG_CONTROL_DESIGN' ));
ENDSEC;

DATA;
#1 = VERTEX_POINT ( 'NONE', #80 ) ;
#2 = APPROVAL_STATUS ( 'not_yet_approved' ) ;
#3 = AXIS2_PLACEMENT_3D ( 'NONE', #197, #69, #121 ) ;
#4 = PERSON_AND_ORGANIZATION ( #189, #192 ) ;
#5 = APPROVAL_PERSON_ORGANIZATION ( #191, #119, #45 ) ;
#6 = CC_DESIGN_PERSON_AND_ORGANIZATION_ASSIGNMENT ( #104, #165, ( #174 ) ) ;
#7 = EDGE_LOOP ( 'NONE', ( #100 ) ) ;
#8 = CARTESIAN_POINT ( 'NONE',  ( 0.0000000000000000000, 0.0000000000000000000, 0.0000000000000000000 ) ) ;
#9 = LOCAL_TIME ( 11, 8, 55.00000000000000000, #150 ) ;
#10 = DATE_AND_TIME ( #111, #188 ) ;
#11 = EDGE_CURVE ( 'NONE', #1, #1, #195, .T. ) ;
#12 = CARTESIAN_POINT ( 'NONE',  ( 0.0000000000000000000, 0.0000000000000000000, 0.0000000000000000000 ) ) ;
#13 = CALENDAR_DATE ( 2021, 12, 11 ) ;
#14 = DIRECTION ( 'NONE',  ( -4.275831445896958607E-31, -1.000000000000000000, -1.224646799147353207E-16 ) ) ;
#15 = DIRECTION ( 'NONE',  ( 3.491481338843133355E-15, -1.224646799147353207E-16, 1.000000000000000000 ) ) ;
#16 = PERSON_AND_ORGANIZATION_ROLE ( 'creator' ) ;
#17 = APPROVAL_DATE_TIME ( #143, #161 ) ;
#18 = EDGE_LOOP ( 'NONE', ( #83 ) ) ;
#19 = APPROVAL_ROLE ( '' ) ;
#20 = EDGE_LOOP ( 'NONE', ( #129 ) ) ;
#21 = FACE_OUTER_BOUND ( 'NONE', #196, .T. ) ;
#22 = CC_DESIGN_PERSON_AND_ORGANIZATION_ASSIGNMENT ( #154, #16, ( #126 ) ) ;
#23 = CARTESIAN_POINT ( 'NONE',  ( 2.531323970661271619E-13, -8.878689293818309285E-15, 72.50000000000000000 ) ) ;
#24 = PRODUCT_DEFINITION_FORMATION_WITH_SPECIFIED_SOURCE ( 'ANY', '', #125, .NOT_KNOWN. ) ;
#25 = COORDINATED_UNIVERSAL_TIME_OFFSET ( 1, 0, .AHEAD. ) ;
#26 = FACE_OUTER_BOUND ( 'NONE', #106, .T. ) ;
#27 = CARTESIAN_POINT ( 'NONE',  ( 2.548781377355486718E-13, -8.939921633775675282E-15, 72.99999999999998579 ) ) ;
#28 = APPLICATION_PROTOCOL_DEFINITION ( 'international standard', 'config_control_design', 1994, #48 ) ;
#29 = APPROVAL_ROLE ( '' ) ;
#30 = ADVANCED_BREP_SHAPE_REPRESENTATION ( '30938', ( #94, #159, #84 ), #175 ) ;
#31 = ADVANCED_FACE ( 'NONE', ( #171 ), #137, .F. ) ;
#32 = CONICAL_SURFACE ( 'NONE', #34, 4.999999999999999112, 0.7853981633974482790 ) ;
#33 = CC_DESIGN_APPROVAL ( #36, ( #126 ) ) ;
#34 = AXIS2_PLACEMENT_3D ( 'NONE', #27, #92, #152 ) ;
#35 = FACE_OUTER_BOUND ( 'NONE', #123, .T. ) ;
#36 = APPROVAL ( #2, 'UNSPECIFIED' ) ;
#37 = PLANE ( 'NONE',  #107 ) ;
#38 = DATE_AND_TIME ( #112, #9 ) ;
#39 = PLANE ( 'NONE',  #95 ) ;
#40 =( NAMED_UNIT ( * ) PLANE_ANGLE_UNIT ( ) SI_UNIT ( $, .RADIAN. ) );
#41 = DIRECTION ( 'NONE',  ( 4.275831445896958607E-31, 1.000000000000000000, 1.224646799147353207E-16 ) ) ;
#42 = CC_DESIGN_SECURITY_CLASSIFICATION ( #174, ( #24 ) ) ;
#43 = DIRECTION ( 'NONE',  ( -3.491481338843133355E-15, 1.224646799147353207E-16, -1.000000000000000000 ) ) ;
#44 = EDGE_CURVE ( 'NONE', #61, #61, #46, .T. ) ;
#45 = APPROVAL_ROLE ( '' ) ;
#46 = CIRCLE ( 'NONE', #78, 5.500000000000000000 ) ;
#47 = DATE_TIME_ROLE ( 'classification_date' ) ;
#48 = APPLICATION_CONTEXT ( 'configuration controlled 3d designs of mechanical parts and assemblies' ) ;
#49 = PRODUCT_RELATED_PRODUCT_CATEGORY ( 'detail', '', ( #125 ) ) ;
#50 = DIRECTION ( 'NONE',  ( 4.275831445896957731E-31, 1.000000000000000000, 1.224646799147353207E-16 ) ) ;
#51 = DIRECTION ( 'NONE',  ( 4.275831445896958607E-31, 1.000000000000000000, 1.224646799147353207E-16 ) ) ;
#52 = PERSON_AND_ORGANIZATION ( #189, #192 ) ;
#53 = FACE_OUTER_BOUND ( 'NONE', #20, .T. ) ;
#54 = APPROVAL_STATUS ( 'not_yet_approved' ) ;
#55 = FACE_OUTER_BOUND ( 'NONE', #7, .T. ) ;
#56 = CIRCLE ( 'NONE', #3, 4.999999999999999112 ) ;
#57 = CARTESIAN_POINT ( 'NONE',  ( 0.0000000000000000000, 0.0000000000000000000, 0.0000000000000000000 ) ) ;
#58 = ORIENTED_EDGE ( 'NONE', *, *, #11, .F. ) ;
#59 = APPLICATION_CONTEXT ( 'configuration controlled 3d designs of mechanical parts and assemblies' ) ;
#60 = LOCAL_TIME ( 11, 8, 55.00000000000000000, #79 ) ;
#61 = VERTEX_POINT ( 'NONE', #190 ) ;
#62 = LOCAL_TIME ( 11, 8, 55.00000000000000000, #25 ) ;
#63 =( LENGTH_UNIT ( ) NAMED_UNIT ( * ) SI_UNIT ( .MILLI., .METRE. ) );
#64 = EDGE_CURVE ( 'NONE', #187, #187, #193, .T. ) ;
#65 = PERSON_AND_ORGANIZATION ( #189, #192 ) ;
#66 = AXIS2_PLACEMENT_3D ( 'NONE', #124, #15, #151 ) ;
#67 = CC_DESIGN_APPROVAL ( #119, ( #24 ) ) ;
#68 = PRODUCT_DEFINITION_SHAPE ( 'NONE', 'NONE',  #126 ) ;
#69 = DIRECTION ( 'NONE',  ( -3.491481338843133355E-15, 1.224646799147353207E-16, -1.000000000000000000 ) ) ;
#70 = UNCERTAINTY_MEASURE_WITH_UNIT (LENGTH_MEASURE( 1.000000000000000082E-05 ), #63, 'distance_accuracy_value', 'NONE');
#71 = DIRECTION ( 'NONE',  ( 0.0000000000000000000, 1.000000000000000000, 0.0000000000000000000 ) ) ;
#72 = PERSON_AND_ORGANIZATION_ROLE ( 'creator' ) ;
#73 = DIRECTION ( 'NONE',  ( 4.275831445896957731E-31, 1.000000000000000000, 1.224646799147353207E-16 ) ) ;
#74 = PERSON_AND_ORGANIZATION ( #189, #192 ) ;
#75 = DIRECTION ( 'NONE',  ( -3.491481338843133355E-15, 1.224646799147353207E-16, -1.000000000000000000 ) ) ;
#76 = CARTESIAN_POINT ( 'NONE',  ( 1.047444401652940007E-13, 5.499999999999995559, 30.00000000000000000 ) ) ;
#77 = CARTESIAN_POINT ( 'NONE',  ( 1.047444401652940007E-13, -3.673940397442059178E-15, 30.00000000000000000 ) ) ;
#78 = AXIS2_PLACEMENT_3D ( 'NONE', #85, #43, #50 ) ;
#79 = COORDINATED_UNIVERSAL_TIME_OFFSET ( 1, 0, .AHEAD. ) ;
#80 = CARTESIAN_POINT ( 'NONE',  ( 1.047444401652940007E-13, 5.499999999999995559, 30.00000000000000000 ) ) ;
#81 = CC_DESIGN_PERSON_AND_ORGANIZATION_ASSIGNMENT ( #74, #72, ( #24 ) ) ;
#82 = COORDINATED_UNIVERSAL_TIME_OFFSET ( 1, 0, .AHEAD. ) ;
#83 = ORIENTED_EDGE ( 'NONE', *, *, #89, .T. ) ;
#84 = AXIS2_PLACEMENT_3D ( 'NONE', #57, #128, #201 ) ;
#85 = CARTESIAN_POINT ( 'NONE',  ( -2.351707295243326971E-30, 8.248678804640216843E-32, -6.735557395310442023E-16 ) ) ;
#86 = APPROVAL_DATE_TIME ( #38, #119 ) ;
#87 = ORIENTED_EDGE ( 'NONE', *, *, #158, .F. ) ;
#88 = AXIS2_PLACEMENT_3D ( 'NONE', #23, #134, #199 ) ;
#89 = EDGE_CURVE ( 'NONE', #170, #170, #56, .T. ) ;
#90 = CYLINDRICAL_SURFACE ( 'NONE', #184, 5.499999999999992895 ) ;
#91 = CC_DESIGN_APPROVAL ( #161, ( #174 ) ) ;
#92 = DIRECTION ( 'NONE',  ( -3.491481338843133355E-15, 1.224646799147353207E-16, -1.000000000000000000 ) ) ;
#93 = APPLICATION_PROTOCOL_DEFINITION ( 'international standard', 'config_control_design', 1994, #59 ) ;
#94 = MANIFOLD_SOLID_BREP ( 'Corps-Déplacer/Copier1[1]', #138 ) ;
#95 = AXIS2_PLACEMENT_3D ( 'NONE', #185, #135, #41 ) ;
#96 = APPROVAL_STATUS ( 'not_yet_approved' ) ;
#97 = CC_DESIGN_PERSON_AND_ORGANIZATION_ASSIGNMENT ( #4, #139, ( #125 ) ) ;
#98 = EDGE_LOOP ( 'NONE', ( #182 ) ) ;
#99 = CALENDAR_DATE ( 2021, 12, 11 ) ;
#100 = ORIENTED_EDGE ( 'NONE', *, *, #64, .F. ) ;
#101 = APPROVAL_PERSON_ORGANIZATION ( #148, #36, #29 ) ;
#102 = AXIS2_PLACEMENT_3D ( 'NONE', #12, #75, #73 ) ;
#103 = PLANE ( 'NONE',  #113 ) ;
#104 = PERSON_AND_ORGANIZATION ( #189, #192 ) ;
#105 = ADVANCED_FACE ( 'NONE', ( #130 ), #37, .T. ) ;
#106 = EDGE_LOOP ( 'NONE', ( #157 ) ) ;
#107 = AXIS2_PLACEMENT_3D ( 'NONE', #149, #116, #51 ) ;
#108 = CALENDAR_DATE ( 2021, 12, 11 ) ;
#109 = FACE_OUTER_BOUND ( 'NONE', #167, .T. ) ;
#110 = DIRECTION ( 'NONE',  ( -3.491481338843133355E-15, 1.224646799147353207E-16, -1.000000000000000000 ) ) ;
#111 = CALENDAR_DATE ( 2021, 12, 11 ) ;
#112 = CALENDAR_DATE ( 2021, 12, 11 ) ;
#113 = AXIS2_PLACEMENT_3D ( 'NONE', #164, #202, #14 ) ;
#114 = EDGE_LOOP ( 'NONE', ( #144 ) ) ;
#115 = APPROVAL_PERSON_ORGANIZATION ( #65, #161, #19 ) ;
#116 = DIRECTION ( 'NONE',  ( -3.491481338843133355E-15, 1.224646799147353207E-16, -1.000000000000000000 ) ) ;
#117 = DESIGN_CONTEXT ( 'detailed design', #59, 'design' ) ;
#118 = DIRECTION ( 'NONE',  ( 0.0000000000000000000, 1.000000000000000000, 0.0000000000000000000 ) ) ;
#119 = APPROVAL ( #54, 'UNSPECIFIED' ) ;
#120 = CARTESIAN_POINT ( 'NONE',  ( 2.531323970661271619E-13, 5.499999999999976907, 72.50000000000000000 ) ) ;
#121 = DIRECTION ( 'NONE',  ( 0.0000000000000000000, 1.000000000000000000, 0.0000000000000000000 ) ) ;
#122 = DATE_AND_TIME ( #13, #60 ) ;
#123 = EDGE_LOOP ( 'NONE', ( #179 ) ) ;
#124 = CARTESIAN_POINT ( 'NONE',  ( 1.047444401652940007E-13, 4.124339402320102400E-32, 30.00000000000000000 ) ) ;
#125 = PRODUCT ( '30938', '30938', '', ( #153 ) ) ;
#126 = PRODUCT_DEFINITION ( 'UNKNOWN', '', #24, #117 ) ;
#127 = LOCAL_TIME ( 11, 8, 55.00000000000000000, #82 ) ;
#128 = DIRECTION ( 'NONE',  ( 0.0000000000000000000, 0.0000000000000000000, 1.000000000000000000 ) ) ;
#129 = ORIENTED_EDGE ( 'NONE', *, *, #89, .F. ) ;
#130 = FACE_OUTER_BOUND ( 'NONE', #98, .T. ) ;
#131 = ADVANCED_FACE ( 'NONE', ( #35, #26 ), #163, .T. ) ;
#132 = DIRECTION ( 'NONE',  ( -3.491481338843133355E-15, 1.224646799147353207E-16, -1.000000000000000000 ) ) ;
#133 = VERTEX_POINT ( 'NONE', #120 ) ;
#134 = DIRECTION ( 'NONE',  ( -3.491481338843133355E-15, 1.224646799147353207E-16, -1.000000000000000000 ) ) ;
#135 = DIRECTION ( 'NONE',  ( -3.491481338843133355E-15, 1.224646799147353207E-16, -1.000000000000000000 ) ) ;
#136 = CARTESIAN_POINT ( 'NONE',  ( 2.548781377355486718E-13, 4.999999999999990230, 72.99999999999998579 ) ) ;
#137 = PLANE ( 'NONE',  #66 ) ;
#138 = CLOSED_SHELL ( 'NONE', ( #31, #141, #178, #173 ) ) ;
#139 = PERSON_AND_ORGANIZATION_ROLE ( 'design_owner' ) ;
#140 = DATE_TIME_ROLE ( 'creation_date' ) ;
#141 = ADVANCED_FACE ( 'NONE', ( #21, #147 ), #90, .T. ) ;
#142 = SHAPE_DEFINITION_REPRESENTATION ( #68, #30 ) ;
#143 = DATE_AND_TIME ( #99, #127 ) ;
#144 = ORIENTED_EDGE ( 'NONE', *, *, #11, .T. ) ;
#145 = CC_DESIGN_DATE_AND_TIME_ASSIGNMENT ( #168, #47, ( #174 ) ) ;
#146 = CARTESIAN_POINT ( 'NONE',  ( 1.047444401652940007E-13, -3.673940397442059178E-15, 30.00000000000000000 ) ) ;
#147 = FACE_OUTER_BOUND ( 'NONE', #160, .T. ) ;
#148 = PERSON_AND_ORGANIZATION ( #189, #192 ) ;
#149 = CARTESIAN_POINT ( 'NONE',  ( -1.175853647621663485E-30, 4.124339402320108422E-32, -3.367778697655221012E-16 ) ) ;
#150 = COORDINATED_UNIVERSAL_TIME_OFFSET ( 1, 0, .AHEAD. ) ;
#151 = DIRECTION ( 'NONE',  ( -4.275831445896958607E-31, -1.000000000000000000, -1.224646799147353207E-16 ) ) ;
#152 = DIRECTION ( 'NONE',  ( 0.0000000000000000000, 1.000000000000000000, 0.0000000000000000000 ) ) ;
#153 = MECHANICAL_CONTEXT ( 'NONE', #48, 'mechanical' ) ;
#154 = PERSON_AND_ORGANIZATION ( #189, #192 ) ;
#155 = ADVANCED_FACE ( 'NONE', ( #55 ), #103, .T. ) ;
#156 = AXIS2_PLACEMENT_3D ( 'NONE', #77, #110, #71 ) ;
#157 = ORIENTED_EDGE ( 'NONE', *, *, #44, .F. ) ;
#158 = EDGE_CURVE ( 'NONE', #133, #133, #162, .T. ) ;
#159 = MANIFOLD_SOLID_BREP ( 'Corps-Déplacer/Copier1[2]', #177 ) ;
#160 = EDGE_LOOP ( 'NONE', ( #58 ) ) ;
#161 = APPROVAL ( #96, 'UNSPECIFIED' ) ;
#162 = CIRCLE ( 'NONE', #88, 5.499999999999985789 ) ;
#163 = CYLINDRICAL_SURFACE ( 'NONE', #102, 5.500000000000000000 ) ;
#164 = CARTESIAN_POINT ( 'NONE',  ( 1.047444401652940007E-13, 4.124339402320102400E-32, 30.00000000000000000 ) ) ;
#165 = PERSON_AND_ORGANIZATION_ROLE ( 'classification_officer' ) ;
#166 = AXIS2_PLACEMENT_3D ( 'NONE', #146, #186, #118 ) ;
#167 = EDGE_LOOP ( 'NONE', ( #87 ) ) ;
#168 = DATE_AND_TIME ( #108, #62 ) ;
#169 = FACE_BOUND ( 'NONE', #18, .T. ) ;
#170 = VERTEX_POINT ( 'NONE', #136 ) ;
#171 = FACE_OUTER_BOUND ( 'NONE', #114, .T. ) ;
#172 = APPROVAL_DATE_TIME ( #10, #36 ) ;
#173 = ADVANCED_FACE ( 'NONE', ( #53 ), #39, .F. ) ;
#174 = SECURITY_CLASSIFICATION ( '', '', #183 ) ;
#175 =( GEOMETRIC_REPRESENTATION_CONTEXT ( 3 ) GLOBAL_UNCERTAINTY_ASSIGNED_CONTEXT ( ( #70 ) ) GLOBAL_UNIT_ASSIGNED_CONTEXT ( ( #63, #40, #203 ) ) REPRESENTATION_CONTEXT ( 'NONE', 'WORKASPACE' ) );
#176 = COORDINATED_UNIVERSAL_TIME_OFFSET ( 1, 0, .AHEAD. ) ;
#177 = CLOSED_SHELL ( 'NONE', ( #105, #131, #155 ) ) ;
#178 = ADVANCED_FACE ( 'NONE', ( #109, #169 ), #32, .T. ) ;
#179 = ORIENTED_EDGE ( 'NONE', *, *, #64, .T. ) ;
#180 = DIRECTION ( 'NONE',  ( 4.275831445896958607E-31, 1.000000000000000000, 1.224646799147352961E-16 ) ) ;
#181 = PERSON_AND_ORGANIZATION_ROLE ( 'design_supplier' ) ;
#182 = ORIENTED_EDGE ( 'NONE', *, *, #44, .T. ) ;
#183 = SECURITY_CLASSIFICATION_LEVEL ( 'unclassified' ) ;
#184 = AXIS2_PLACEMENT_3D ( 'NONE', #8, #132, #180 ) ;
#185 = CARTESIAN_POINT ( 'NONE',  ( 2.548781377355486718E-13, 1.737032836375160175E-30, 72.99999999999998579 ) ) ;
#186 = DIRECTION ( 'NONE',  ( -3.491481338843133355E-15, 1.224646799147353207E-16, -1.000000000000000000 ) ) ;
#187 = VERTEX_POINT ( 'NONE', #76 ) ;
#188 = LOCAL_TIME ( 11, 8, 55.00000000000000000, #176 ) ;
#189 = PERSON ( 'UNSPECIFIED', 'UNSPECIFIED', 'UNSPECIFIED', ('UNSPECIFIED'), ('UNSPECIFIED'), ('UNSPECIFIED') ) ;
#190 = CARTESIAN_POINT ( 'NONE',  ( 0.0000000000000000000, 5.500000000000000000, 0.0000000000000000000 ) ) ;
#191 = PERSON_AND_ORGANIZATION ( #189, #192 ) ;
#192 = ORGANIZATION ( 'UNSPECIFIED', 'UNSPECIFIED', '' ) ;
#193 = CIRCLE ( 'NONE', #166, 5.499999999999999112 ) ;
#194 = CC_DESIGN_DATE_AND_TIME_ASSIGNMENT ( #122, #140, ( #126 ) ) ;
#195 = CIRCLE ( 'NONE', #156, 5.499999999999999112 ) ;
#196 = EDGE_LOOP ( 'NONE', ( #198 ) ) ;
#197 = CARTESIAN_POINT ( 'NONE',  ( 2.548781377355486718E-13, -8.939921633775675282E-15, 72.99999999999998579 ) ) ;
#198 = ORIENTED_EDGE ( 'NONE', *, *, #158, .T. ) ;
#199 = DIRECTION ( 'NONE',  ( 0.0000000000000000000, 1.000000000000000000, 0.0000000000000000000 ) ) ;
#200 = CC_DESIGN_PERSON_AND_ORGANIZATION_ASSIGNMENT ( #52, #181, ( #24 ) ) ;
#201 = DIRECTION ( 'NONE',  ( 1.000000000000000000, 0.0000000000000000000, 0.0000000000000000000 ) ) ;
#202 = DIRECTION ( 'NONE',  ( 3.491481338843133355E-15, -1.224646799147353207E-16, 1.000000000000000000 ) ) ;
#203 =( NAMED_UNIT ( * ) SI_UNIT ( $, .STERADIAN. ) SOLID_ANGLE_UNIT ( ) );
ENDSEC;
END-ISO-10303-21;
