ISO-10303-21;
HEADER;
FILE_DESCRIPTION (( 'STEP AP203' ),
    '1' );
FILE_NAME ('30854.step',
    '2021-11-12T10:08:55',
    ( '' ),
    ( '' ),
    'SwSTEP 2.0',
    'SolidWorks 2019',
    '' );
FILE_SCHEMA (( 'CONFIG_CONTROL_DESIGN' ));
ENDSEC;

DATA;
#1 = CARTESIAN_POINT ( 'NONE',  ( 1.047444401652940007E-13, -3.673940397442059178E-15, 30.00000000000000000 ) ) ;
#2 = CALENDAR_DATE ( 2021, 12, 11 ) ;
#3 = AXIS2_PLACEMENT_3D ( 'NONE', #89, #187, #50 ) ;
#4 = APPROVAL_PERSON_ORGANIZATION ( #203, #64, #111 ) ;
#5 = CC_DESIGN_DATE_AND_TIME_ASSIGNMENT ( #28, #172, ( #37 ) ) ;
#6 = SECURITY_CLASSIFICATION ( '', '', #33 ) ;
#7 = PRODUCT ( '30854', '30854', '', ( #30 ) ) ;
#8 = ORIENTED_EDGE ( 'NONE', *, *, #96, .F. ) ;
#9 = CIRCLE ( 'NONE', #15, 6.000000000000000000 ) ;
#10 = ADVANCED_FACE ( 'NONE', ( #73, #65 ), #46, .T. ) ;
#11 = ORIENTED_EDGE ( 'NONE', *, *, #193, .F. ) ;
#12 =( LENGTH_UNIT ( ) NAMED_UNIT ( * ) SI_UNIT ( .MILLI., .METRE. ) );
#13 = CARTESIAN_POINT ( 'NONE',  ( -2.565498867538175514E-30, 8.998558695971145647E-32, -7.347880794884119736E-16 ) ) ;
#14 = APPROVAL_PERSON_ORGANIZATION ( #88, #21, #125 ) ;
#15 = AXIS2_PLACEMENT_3D ( 'NONE', #1, #19, #153 ) ;
#16 = CARTESIAN_POINT ( 'NONE',  ( 2.548781377355486718E-13, -8.939921633775675282E-15, 72.99999999999998579 ) ) ;
#17 = FACE_OUTER_BOUND ( 'NONE', #149, .T. ) ;
#18 = DATE_AND_TIME ( #174, #115 ) ;
#19 = DIRECTION ( 'NONE',  ( -3.491481338843133355E-15, 1.224646799147353207E-16, -1.000000000000000000 ) ) ;
#20 = APPLICATION_PROTOCOL_DEFINITION ( 'international standard', 'config_control_design', 1994, #112 ) ;
#21 = APPROVAL ( #152, 'UNSPECIFIED' ) ;
#22 = EDGE_CURVE ( 'NONE', #124, #124, #9, .T. ) ;
#23 = EDGE_LOOP ( 'NONE', ( #121 ) ) ;
#24 = PRODUCT_DEFINITION_SHAPE ( 'NONE', 'NONE',  #37 ) ;
#25 = ORIENTED_EDGE ( 'NONE', *, *, #96, .T. ) ;
#26 = CC_DESIGN_SECURITY_CLASSIFICATION ( #6, ( #186 ) ) ;
#27 = CARTESIAN_POINT ( 'NONE',  ( 2.548781377355486718E-13, 1.740782235831814945E-30, 72.99999999999998579 ) ) ;
#28 = DATE_AND_TIME ( #2, #101 ) ;
#29 = DIRECTION ( 'NONE',  ( -3.491481338843133355E-15, 1.224646799147353207E-16, -1.000000000000000000 ) ) ;
#30 = MECHANICAL_CONTEXT ( 'NONE', #112, 'mechanical' ) ;
#31 = AXIS2_PLACEMENT_3D ( 'NONE', #16, #93, #140 ) ;
#32 = PLANE ( 'NONE',  #191 ) ;
#33 = SECURITY_CLASSIFICATION_LEVEL ( 'unclassified' ) ;
#34 = DIRECTION ( 'NONE',  ( -3.491481338843133355E-15, 1.224646799147353207E-16, -1.000000000000000000 ) ) ;
#35 = VERTEX_POINT ( 'NONE', #90 ) ;
#36 = CARTESIAN_POINT ( 'NONE',  ( 1.047444401652940007E-13, 4.499279347985567350E-32, 30.00000000000000000 ) ) ;
#37 = PRODUCT_DEFINITION ( 'UNKNOWN', '', #186, #167 ) ;
#38 = MANIFOLD_SOLID_BREP ( 'Corps-Déplacer/Copier1[2]', #133 ) ;
#39 = AXIS2_PLACEMENT_3D ( 'NONE', #180, #95, #154 ) ;
#40 = EDGE_CURVE ( 'NONE', #110, #110, #195, .T. ) ;
#41 = PERSON_AND_ORGANIZATION_ROLE ( 'creator' ) ;
#42 = CLOSED_SHELL ( 'NONE', ( #131, #10, #129, #159 ) ) ;
#43 = CARTESIAN_POINT ( 'NONE',  ( 0.0000000000000000000, 0.0000000000000000000, 0.0000000000000000000 ) ) ;
#44 = FACE_BOUND ( 'NONE', #52, .T. ) ;
#45 = COORDINATED_UNIVERSAL_TIME_OFFSET ( 1, 0, .AHEAD. ) ;
#46 = CYLINDRICAL_SURFACE ( 'NONE', #3, 5.999999999999992895 ) ;
#47 = CARTESIAN_POINT ( 'NONE',  ( 1.047444401652940007E-13, 5.999999999999996447, 30.00000000000000000 ) ) ;
#48 = APPROVAL_STATUS ( 'not_yet_approved' ) ;
#49 = APPROVAL ( #48, 'UNSPECIFIED' ) ;
#50 = DIRECTION ( 'NONE',  ( 4.275831445896958607E-31, 1.000000000000000000, 1.224646799147353207E-16 ) ) ;
#51 = ADVANCED_BREP_SHAPE_REPRESENTATION ( '30854', ( #100, #38, #97 ), #67 ) ;
#52 = EDGE_LOOP ( 'NONE', ( #134 ) ) ;
#53 = EDGE_LOOP ( 'NONE', ( #8 ) ) ;
#54 = CC_DESIGN_PERSON_AND_ORGANIZATION_ASSIGNMENT ( #185, #166, ( #37 ) ) ;
#55 = ORIENTED_EDGE ( 'NONE', *, *, #40, .T. ) ;
#56 = CARTESIAN_POINT ( 'NONE',  ( -1.282749433769087757E-30, 4.499279347985572824E-32, -3.673940397442059868E-16 ) ) ;
#57 = CC_DESIGN_APPROVAL ( #64, ( #6 ) ) ;
#58 = DIRECTION ( 'NONE',  ( 0.0000000000000000000, 1.000000000000000000, 0.0000000000000000000 ) ) ;
#59 = PERSON_AND_ORGANIZATION_ROLE ( 'design_supplier' ) ;
#60 = PLANE ( 'NONE',  #170 ) ;
#61 = DIRECTION ( 'NONE',  ( 0.0000000000000000000, 1.000000000000000000, 0.0000000000000000000 ) ) ;
#62 = AXIS2_PLACEMENT_3D ( 'NONE', #199, #29, #61 ) ;
#63 = APPROVAL_DATE_TIME ( #137, #21 ) ;
#64 = APPROVAL ( #188, 'UNSPECIFIED' ) ;
#65 = FACE_OUTER_BOUND ( 'NONE', #83, .T. ) ;
#66 = DIRECTION ( 'NONE',  ( 0.0000000000000000000, 0.0000000000000000000, 1.000000000000000000 ) ) ;
#67 =( GEOMETRIC_REPRESENTATION_CONTEXT ( 3 ) GLOBAL_UNCERTAINTY_ASSIGNED_CONTEXT ( ( #107 ) ) GLOBAL_UNIT_ASSIGNED_CONTEXT ( ( #12, #103, #169 ) ) REPRESENTATION_CONTEXT ( 'NONE', 'WORKASPACE' ) );
#68 = VERTEX_POINT ( 'NONE', #192 ) ;
#69 = CIRCLE ( 'NONE', #62, 6.000000000000000000 ) ;
#70 = CIRCLE ( 'NONE', #31, 5.500000000000000000 ) ;
#71 = FACE_OUTER_BOUND ( 'NONE', #85, .T. ) ;
#72 = CARTESIAN_POINT ( 'NONE',  ( 1.047444401652940007E-13, 5.999999999999996447, 30.00000000000000000 ) ) ;
#73 = FACE_OUTER_BOUND ( 'NONE', #161, .T. ) ;
#74 = COORDINATED_UNIVERSAL_TIME_OFFSET ( 1, 0, .AHEAD. ) ;
#75 = DIRECTION ( 'NONE',  ( 4.275831445896959482E-31, 1.000000000000000000, 1.224646799147353207E-16 ) ) ;
#76 = FACE_OUTER_BOUND ( 'NONE', #160, .T. ) ;
#77 = CC_DESIGN_PERSON_AND_ORGANIZATION_ASSIGNMENT ( #198, #41, ( #186 ) ) ;
#78 = DATE_TIME_ROLE ( 'classification_date' ) ;
#79 = CARTESIAN_POINT ( 'NONE',  ( 0.0000000000000000000, 6.000000000000000000, 0.0000000000000000000 ) ) ;
#80 = VERTEX_POINT ( 'NONE', #72 ) ;
#81 = LOCAL_TIME ( 11, 8, 55.00000000000000000, #74 ) ;
#82 = ORIENTED_EDGE ( 'NONE', *, *, #22, .F. ) ;
#83 = EDGE_LOOP ( 'NONE', ( #82 ) ) ;
#84 = ORGANIZATION ( 'UNSPECIFIED', 'UNSPECIFIED', '' ) ;
#85 = EDGE_LOOP ( 'NONE', ( #55 ) ) ;
#86 = CARTESIAN_POINT ( 'NONE',  ( 0.0000000000000000000, 0.0000000000000000000, 0.0000000000000000000 ) ) ;
#87 = DIRECTION ( 'NONE',  ( 4.275831445896959482E-31, 1.000000000000000000, 1.224646799147353207E-16 ) ) ;
#88 = PERSON_AND_ORGANIZATION ( #106, #84 ) ;
#89 = CARTESIAN_POINT ( 'NONE',  ( 0.0000000000000000000, 0.0000000000000000000, 0.0000000000000000000 ) ) ;
#90 = CARTESIAN_POINT ( 'NONE',  ( 2.548781377355486718E-13, 5.499999999999991118, 72.99999999999998579 ) ) ;
#91 = AXIS2_PLACEMENT_3D ( 'NONE', #27, #156, #182 ) ;
#92 = CC_DESIGN_PERSON_AND_ORGANIZATION_ASSIGNMENT ( #139, #150, ( #7 ) ) ;
#93 = DIRECTION ( 'NONE',  ( -3.491481338843133355E-15, 1.224646799147353207E-16, -1.000000000000000000 ) ) ;
#94 = PERSON_AND_ORGANIZATION ( #106, #84 ) ;
#95 = DIRECTION ( 'NONE',  ( 3.491481338843133355E-15, -1.224646799147353207E-16, 1.000000000000000000 ) ) ;
#96 = EDGE_CURVE ( 'NONE', #68, #68, #109, .T. ) ;
#97 = AXIS2_PLACEMENT_3D ( 'NONE', #86, #66, #183 ) ;
#98 = CC_DESIGN_PERSON_AND_ORGANIZATION_ASSIGNMENT ( #94, #120, ( #6 ) ) ;
#99 = LOCAL_TIME ( 11, 8, 55.00000000000000000, #190 ) ;
#100 = MANIFOLD_SOLID_BREP ( 'Corps-Déplacer/Copier1[1]', #42 ) ;
#101 = LOCAL_TIME ( 11, 8, 55.00000000000000000, #143 ) ;
#102 = CC_DESIGN_DATE_AND_TIME_ASSIGNMENT ( #18, #78, ( #6 ) ) ;
#103 =( NAMED_UNIT ( * ) PLANE_ANGLE_UNIT ( ) SI_UNIT ( $, .RADIAN. ) );
#104 = APPROVAL_DATE_TIME ( #122, #49 ) ;
#105 = FACE_OUTER_BOUND ( 'NONE', #132, .T. ) ;
#106 = PERSON ( 'UNSPECIFIED', 'UNSPECIFIED', 'UNSPECIFIED', ('UNSPECIFIED'), ('UNSPECIFIED'), ('UNSPECIFIED') ) ;
#107 = UNCERTAINTY_MEASURE_WITH_UNIT (LENGTH_MEASURE( 1.000000000000000082E-05 ), #12, 'distance_accuracy_value', 'NONE');
#108 = FACE_OUTER_BOUND ( 'NONE', #53, .T. ) ;
#109 = CIRCLE ( 'NONE', #123, 5.999999999999986677 ) ;
#110 = VERTEX_POINT ( 'NONE', #79 ) ;
#111 = APPROVAL_ROLE ( '' ) ;
#112 = APPLICATION_CONTEXT ( 'configuration controlled 3d designs of mechanical parts and assemblies' ) ;
#113 = PRODUCT_RELATED_PRODUCT_CATEGORY ( 'detail', '', ( #7 ) ) ;
#114 = DATE_AND_TIME ( #176, #99 ) ;
#115 = LOCAL_TIME ( 11, 8, 55.00000000000000000, #45 ) ;
#116 = CC_DESIGN_PERSON_AND_ORGANIZATION_ASSIGNMENT ( #164, #59, ( #186 ) ) ;
#117 = ORIENTED_EDGE ( 'NONE', *, *, #22, .T. ) ;
#118 = COORDINATED_UNIVERSAL_TIME_OFFSET ( 1, 0, .AHEAD. ) ;
#119 = FACE_OUTER_BOUND ( 'NONE', #23, .T. ) ;
#120 = PERSON_AND_ORGANIZATION_ROLE ( 'classification_officer' ) ;
#121 = ORIENTED_EDGE ( 'NONE', *, *, #193, .T. ) ;
#122 = DATE_AND_TIME ( #181, #141 ) ;
#123 = AXIS2_PLACEMENT_3D ( 'NONE', #184, #127, #58 ) ;
#124 = VERTEX_POINT ( 'NONE', #47 ) ;
#125 = APPROVAL_ROLE ( '' ) ;
#126 = APPROVAL_PERSON_ORGANIZATION ( #135, #49, #155 ) ;
#127 = DIRECTION ( 'NONE',  ( -3.491481338843133355E-15, 1.224646799147353207E-16, -1.000000000000000000 ) ) ;
#128 = CALENDAR_DATE ( 2021, 12, 11 ) ;
#129 = ADVANCED_FACE ( 'NONE', ( #108, #44 ), #194, .T. ) ;
#130 = APPLICATION_CONTEXT ( 'configuration controlled 3d designs of mechanical parts and assemblies' ) ;
#131 = ADVANCED_FACE ( 'NONE', ( #105 ), #189, .F. ) ;
#132 = EDGE_LOOP ( 'NONE', ( #117 ) ) ;
#133 = CLOSED_SHELL ( 'NONE', ( #178, #145, #146 ) ) ;
#134 = ORIENTED_EDGE ( 'NONE', *, *, #200, .T. ) ;
#135 = PERSON_AND_ORGANIZATION ( #106, #84 ) ;
#136 = PLANE ( 'NONE',  #91 ) ;
#137 = DATE_AND_TIME ( #128, #81 ) ;
#138 = DIRECTION ( 'NONE',  ( -4.275831445896958607E-31, -1.000000000000000000, -1.224646799147353207E-16 ) ) ;
#139 = PERSON_AND_ORGANIZATION ( #106, #84 ) ;
#140 = DIRECTION ( 'NONE',  ( 0.0000000000000000000, 1.000000000000000000, 0.0000000000000000000 ) ) ;
#141 = LOCAL_TIME ( 11, 8, 55.00000000000000000, #118 ) ;
#142 = ORIENTED_EDGE ( 'NONE', *, *, #40, .F. ) ;
#143 = COORDINATED_UNIVERSAL_TIME_OFFSET ( 1, 0, .AHEAD. ) ;
#144 = APPROVAL_DATE_TIME ( #114, #64 ) ;
#145 = ADVANCED_FACE ( 'NONE', ( #119, #196 ), #168, .T. ) ;
#146 = ADVANCED_FACE ( 'NONE', ( #17 ), #32, .T. ) ;
#147 = EDGE_LOOP ( 'NONE', ( #142 ) ) ;
#148 = ORIENTED_EDGE ( 'NONE', *, *, #200, .F. ) ;
#149 = EDGE_LOOP ( 'NONE', ( #11 ) ) ;
#150 = PERSON_AND_ORGANIZATION_ROLE ( 'design_owner' ) ;
#151 = DIRECTION ( 'NONE',  ( -3.491481338843133355E-15, 1.224646799147353207E-16, -1.000000000000000000 ) ) ;
#152 = APPROVAL_STATUS ( 'not_yet_approved' ) ;
#153 = DIRECTION ( 'NONE',  ( 0.0000000000000000000, 1.000000000000000000, 0.0000000000000000000 ) ) ;
#154 = DIRECTION ( 'NONE',  ( -4.275831445896958607E-31, -1.000000000000000000, -1.224646799147353207E-16 ) ) ;
#155 = APPROVAL_ROLE ( '' ) ;
#156 = DIRECTION ( 'NONE',  ( -3.491481338843133355E-15, 1.224646799147353207E-16, -1.000000000000000000 ) ) ;
#157 = SHAPE_DEFINITION_REPRESENTATION ( #24, #51 ) ;
#158 = AXIS2_PLACEMENT_3D ( 'NONE', #13, #171, #87 ) ;
#159 = ADVANCED_FACE ( 'NONE', ( #76 ), #136, .F. ) ;
#160 = EDGE_LOOP ( 'NONE', ( #148 ) ) ;
#161 = EDGE_LOOP ( 'NONE', ( #25 ) ) ;
#162 = CC_DESIGN_APPROVAL ( #49, ( #37 ) ) ;
#163 = AXIS2_PLACEMENT_3D ( 'NONE', #43, #34, #75 ) ;
#164 = PERSON_AND_ORGANIZATION ( #106, #84 ) ;
#165 = CARTESIAN_POINT ( 'NONE',  ( 2.548781377355486718E-13, -8.939921633775675282E-15, 72.99999999999998579 ) ) ;
#166 = PERSON_AND_ORGANIZATION_ROLE ( 'creator' ) ;
#167 = DESIGN_CONTEXT ( 'detailed design', #130, 'design' ) ;
#168 = CYLINDRICAL_SURFACE ( 'NONE', #163, 6.000000000000000000 ) ;
#169 =( NAMED_UNIT ( * ) SI_UNIT ( $, .STERADIAN. ) SOLID_ANGLE_UNIT ( ) );
#170 = AXIS2_PLACEMENT_3D ( 'NONE', #56, #151, #197 ) ;
#171 = DIRECTION ( 'NONE',  ( -3.491481338843133355E-15, 1.224646799147353207E-16, -1.000000000000000000 ) ) ;
#172 = DATE_TIME_ROLE ( 'creation_date' ) ;
#173 = DIRECTION ( 'NONE',  ( -3.491481338843133355E-15, 1.224646799147353207E-16, -1.000000000000000000 ) ) ;
#174 = CALENDAR_DATE ( 2021, 12, 11 ) ;
#175 = DIRECTION ( 'NONE',  ( 3.491481338843133355E-15, -1.224646799147353207E-16, 1.000000000000000000 ) ) ;
#176 = CALENDAR_DATE ( 2021, 12, 11 ) ;
#177 = AXIS2_PLACEMENT_3D ( 'NONE', #165, #173, #202 ) ;
#178 = ADVANCED_FACE ( 'NONE', ( #71 ), #60, .T. ) ;
#179 = CC_DESIGN_APPROVAL ( #21, ( #186 ) ) ;
#180 = CARTESIAN_POINT ( 'NONE',  ( 1.047444401652940007E-13, 4.499279347985567350E-32, 30.00000000000000000 ) ) ;
#181 = CALENDAR_DATE ( 2021, 12, 11 ) ;
#182 = DIRECTION ( 'NONE',  ( 4.275831445896958607E-31, 1.000000000000000000, 1.224646799147353207E-16 ) ) ;
#183 = DIRECTION ( 'NONE',  ( 1.000000000000000000, 0.0000000000000000000, 0.0000000000000000000 ) ) ;
#184 = CARTESIAN_POINT ( 'NONE',  ( 2.531323970661271619E-13, -8.878689293818309285E-15, 72.50000000000000000 ) ) ;
#185 = PERSON_AND_ORGANIZATION ( #106, #84 ) ;
#186 = PRODUCT_DEFINITION_FORMATION_WITH_SPECIFIED_SOURCE ( 'ANY', '', #7, .NOT_KNOWN. ) ;
#187 = DIRECTION ( 'NONE',  ( -3.491481338843133355E-15, 1.224646799147353207E-16, -1.000000000000000000 ) ) ;
#188 = APPROVAL_STATUS ( 'not_yet_approved' ) ;
#189 = PLANE ( 'NONE',  #39 ) ;
#190 = COORDINATED_UNIVERSAL_TIME_OFFSET ( 1, 0, .AHEAD. ) ;
#191 = AXIS2_PLACEMENT_3D ( 'NONE', #36, #175, #138 ) ;
#192 = CARTESIAN_POINT ( 'NONE',  ( 2.531323970661271619E-13, 5.999999999999977796, 72.50000000000000000 ) ) ;
#193 = EDGE_CURVE ( 'NONE', #80, #80, #69, .T. ) ;
#194 = CONICAL_SURFACE ( 'NONE', #177, 5.500000000000000000, 0.7853981633974482790 ) ;
#195 = CIRCLE ( 'NONE', #158, 6.000000000000000000 ) ;
#196 = FACE_OUTER_BOUND ( 'NONE', #147, .T. ) ;
#197 = DIRECTION ( 'NONE',  ( 4.275831445896958607E-31, 1.000000000000000000, 1.224646799147353207E-16 ) ) ;
#198 = PERSON_AND_ORGANIZATION ( #106, #84 ) ;
#199 = CARTESIAN_POINT ( 'NONE',  ( 1.047444401652940007E-13, -3.673940397442059178E-15, 30.00000000000000000 ) ) ;
#200 = EDGE_CURVE ( 'NONE', #35, #35, #70, .T. ) ;
#201 = APPLICATION_PROTOCOL_DEFINITION ( 'international standard', 'config_control_design', 1994, #130 ) ;
#202 = DIRECTION ( 'NONE',  ( 0.0000000000000000000, 1.000000000000000000, 0.0000000000000000000 ) ) ;
#203 = PERSON_AND_ORGANIZATION ( #106, #84 ) ;
ENDSEC;
END-ISO-10303-21;
