ISO-10303-21;
HEADER;
FILE_DESCRIPTION (( 'STEP AP203' ),
    '1' );
FILE_NAME ('30853.step',
    '2021-11-12T10:08:54',
    ( '' ),
    ( '' ),
    'SwSTEP 2.0',
    'SolidWorks 2019',
    '' );
FILE_SCHEMA (( 'CONFIG_CONTROL_DESIGN' ));
ENDSEC;

DATA;
#1 = CARTESIAN_POINT ( 'NONE',  ( 1.047444401652940007E-13, 3.749399456654637998E-32, 30.00000000000000000 ) ) ;
#2 = APPROVAL_STATUS ( 'not_yet_approved' ) ;
#3 = EDGE_CURVE ( 'NONE', #186, #186, #90, .T. ) ;
#4 = EDGE_LOOP ( 'NONE', ( #131 ) ) ;
#5 = PERSON_AND_ORGANIZATION_ROLE ( 'classification_officer' ) ;
#6 = DATE_TIME_ROLE ( 'creation_date' ) ;
#7 = PERSON_AND_ORGANIZATION ( #87, #181 ) ;
#8 = CC_DESIGN_SECURITY_CLASSIFICATION ( #91, ( #9 ) ) ;
#9 = PRODUCT_DEFINITION_FORMATION_WITH_SPECIFIED_SOURCE ( 'ANY', '', #96, .NOT_KNOWN. ) ;
#10 = CALENDAR_DATE ( 2021, 12, 11 ) ;
#11 = ORIENTED_EDGE ( 'NONE', *, *, #38, .F. ) ;
#12 = PRODUCT_DEFINITION ( 'UNKNOWN', '', #9, #75 ) ;
#13 = COORDINATED_UNIVERSAL_TIME_OFFSET ( 1, 0, .AHEAD. ) ;
#14 = FACE_OUTER_BOUND ( 'NONE', #184, .T. ) ;
#15 = CARTESIAN_POINT ( 'NONE',  ( 0.0000000000000000000, 0.0000000000000000000, 0.0000000000000000000 ) ) ;
#16 = CARTESIAN_POINT ( 'NONE',  ( 0.0000000000000000000, 5.000000000000000000, 0.0000000000000000000 ) ) ;
#17 = CARTESIAN_POINT ( 'NONE',  ( 2.513866563967056016E-13, 3.374459510989171407E-32, 72.00000000000000000 ) ) ;
#18 = DIRECTION ( 'NONE',  ( -3.491481338843133355E-15, 1.224646799147353207E-16, -1.000000000000000000 ) ) ;
#19 = ADVANCED_FACE ( 'NONE', ( #167, #190 ), #124, .T. ) ;
#20 = DATE_AND_TIME ( #67, #123 ) ;
#21 = CC_DESIGN_PERSON_AND_ORGANIZATION_ASSIGNMENT ( #7, #114, ( #96 ) ) ;
#22 = APPROVAL_DATE_TIME ( #163, #102 ) ;
#23 = EDGE_LOOP ( 'NONE', ( #24 ) ) ;
#24 = ORIENTED_EDGE ( 'NONE', *, *, #38, .T. ) ;
#25 = APPROVAL_DATE_TIME ( #147, #98 ) ;
#26 = APPROVAL_PERSON_ORGANIZATION ( #182, #102, #39 ) ;
#27 = EDGE_LOOP ( 'NONE', ( #52 ) ) ;
#28 = DIRECTION ( 'NONE',  ( 0.0000000000000000000, 1.000000000000000000, 0.0000000000000000000 ) ) ;
#29 = DIRECTION ( 'NONE',  ( 4.275831445896958607E-31, 1.000000000000000000, 1.224646799147353207E-16 ) ) ;
#30 = AXIS2_PLACEMENT_3D ( 'NONE', #15, #172, #29 ) ;
#31 = AXIS2_PLACEMENT_3D ( 'NONE', #138, #33, #49 ) ;
#32 = CYLINDRICAL_SURFACE ( 'NONE', #31, 4.999999999999999112 ) ;
#33 = DIRECTION ( 'NONE',  ( -3.491481338843133355E-15, 1.224646799147353207E-16, -1.000000000000000000 ) ) ;
#34 = CARTESIAN_POINT ( 'NONE',  ( 1.047444401652940007E-13, 3.749399456654637998E-32, 30.00000000000000000 ) ) ;
#35 = EDGE_CURVE ( 'NONE', #139, #139, #115, .T. ) ;
#36 = AXIS2_PLACEMENT_3D ( 'NONE', #105, #171, #93 ) ;
#37 = SHAPE_DEFINITION_REPRESENTATION ( #175, #113 ) ;
#38 = EDGE_CURVE ( 'NONE', #200, #200, #141, .T. ) ;
#39 = APPROVAL_ROLE ( '' ) ;
#40 = PERSON_AND_ORGANIZATION ( #87, #181 ) ;
#41 =( NAMED_UNIT ( * ) SI_UNIT ( $, .STERADIAN. ) SOLID_ANGLE_UNIT ( ) );
#42 = APPROVAL_PERSON_ORGANIZATION ( #53, #98, #165 ) ;
#43 = CARTESIAN_POINT ( 'NONE',  ( 2.513866563967056016E-13, -8.817456953860941711E-15, 72.00000000000000000 ) ) ;
#44 = CARTESIAN_POINT ( 'NONE',  ( 1.047444401652940007E-13, -3.673940397442059178E-15, 30.00000000000000000 ) ) ;
#45 = FACE_OUTER_BOUND ( 'NONE', #58, .T. ) ;
#46 = AXIS2_PLACEMENT_3D ( 'NONE', #150, #85, #70 ) ;
#47 = FACE_OUTER_BOUND ( 'NONE', #23, .T. ) ;
#48 = ADVANCED_FACE ( 'NONE', ( #47, #191 ), #32, .T. ) ;
#49 = DIRECTION ( 'NONE',  ( 4.275831445896958607E-31, 1.000000000000000000, 1.224646799147353207E-16 ) ) ;
#50 = COORDINATED_UNIVERSAL_TIME_OFFSET ( 1, 0, .AHEAD. ) ;
#51 = ORIENTED_EDGE ( 'NONE', *, *, #198, .F. ) ;
#52 = ORIENTED_EDGE ( 'NONE', *, *, #3, .F. ) ;
#53 = PERSON_AND_ORGANIZATION ( #87, #181 ) ;
#54 = AXIS2_PLACEMENT_3D ( 'NONE', #74, #18, #62 ) ;
#55 = LOCAL_TIME ( 11, 8, 54.00000000000000000, #197 ) ;
#56 = PRODUCT_RELATED_PRODUCT_CATEGORY ( 'detail', '', ( #96 ) ) ;
#57 =( LENGTH_UNIT ( ) NAMED_UNIT ( * ) SI_UNIT ( .MILLI., .METRE. ) );
#58 = EDGE_LOOP ( 'NONE', ( #11 ) ) ;
#59 = APPLICATION_PROTOCOL_DEFINITION ( 'international standard', 'config_control_design', 1994, #81 ) ;
#60 = CARTESIAN_POINT ( 'NONE',  ( 2.513866563967056016E-13, -8.817456953860941711E-15, 72.00000000000000000 ) ) ;
#61 = FACE_OUTER_BOUND ( 'NONE', #101, .T. ) ;
#62 = DIRECTION ( 'NONE',  ( 0.0000000000000000000, 1.000000000000000000, 0.0000000000000000000 ) ) ;
#63 = CIRCLE ( 'NONE', #36, 5.000000000000000000 ) ;
#64 = PLANE ( 'NONE',  #149 ) ;
#65 = COORDINATED_UNIVERSAL_TIME_OFFSET ( 1, 0, .AHEAD. ) ;
#66 = EDGE_LOOP ( 'NONE', ( #83 ) ) ;
#67 = CALENDAR_DATE ( 2021, 12, 11 ) ;
#68 = EDGE_LOOP ( 'NONE', ( #118 ) ) ;
#69 = CC_DESIGN_APPROVAL ( #102, ( #9 ) ) ;
#70 = DIRECTION ( 'NONE',  ( 1.000000000000000000, 0.0000000000000000000, 0.0000000000000000000 ) ) ;
#71 = ORIENTED_EDGE ( 'NONE', *, *, #144, .F. ) ;
#72 = CIRCLE ( 'NONE', #142, 4.500000000000005329 ) ;
#73 = MECHANICAL_CONTEXT ( 'NONE', #112, 'mechanical' ) ;
#74 = CARTESIAN_POINT ( 'NONE',  ( 2.496409157272840412E-13, -8.756224613903574137E-15, 71.50000000000000000 ) ) ;
#75 = DESIGN_CONTEXT ( 'detailed design', #81, 'design' ) ;
#76 = FACE_BOUND ( 'NONE', #66, .T. ) ;
#77 = VERTEX_POINT ( 'NONE', #203 ) ;
#78 = DIRECTION ( 'NONE',  ( 0.0000000000000000000, 1.000000000000000000, 0.0000000000000000000 ) ) ;
#79 = CC_DESIGN_DATE_AND_TIME_ASSIGNMENT ( #135, #6, ( #12 ) ) ;
#80 = DIRECTION ( 'NONE',  ( 3.491481338843133355E-15, -1.224646799147353207E-16, 1.000000000000000000 ) ) ;
#81 = APPLICATION_CONTEXT ( 'configuration controlled 3d designs of mechanical parts and assemblies' ) ;
#82 = PERSON_AND_ORGANIZATION_ROLE ( 'design_supplier' ) ;
#83 = ORIENTED_EDGE ( 'NONE', *, *, #198, .T. ) ;
#84 = EDGE_LOOP ( 'NONE', ( #71 ) ) ;
#85 = DIRECTION ( 'NONE',  ( 0.0000000000000000000, 0.0000000000000000000, 1.000000000000000000 ) ) ;
#86 = PERSON_AND_ORGANIZATION_ROLE ( 'creator' ) ;
#87 = PERSON ( 'UNSPECIFIED', 'UNSPECIFIED', 'UNSPECIFIED', ('UNSPECIFIED'), ('UNSPECIFIED'), ('UNSPECIFIED') ) ;
#88 = CARTESIAN_POINT ( 'NONE',  ( 1.047444401652940007E-13, 4.999999999999995559, 30.00000000000000000 ) ) ;
#89 = CARTESIAN_POINT ( 'NONE',  ( -1.068957861474239564E-30, 3.749399456654644020E-32, -3.061616997868383141E-16 ) ) ;
#90 = CIRCLE ( 'NONE', #132, 4.999999999999999112 ) ;
#91 = SECURITY_CLASSIFICATION ( '', '', #143 ) ;
#92 = APPROVAL ( #2, 'UNSPECIFIED' ) ;
#93 = DIRECTION ( 'NONE',  ( 4.275831445896958607E-31, 1.000000000000000000, 1.224646799147353207E-16 ) ) ;
#94 = PLANE ( 'NONE',  #111 ) ;
#95 = ADVANCED_FACE ( 'NONE', ( #14 ), #64, .T. ) ;
#96 = PRODUCT ( '30853', '30853', '', ( #73 ) ) ;
#97 = CC_DESIGN_APPROVAL ( #98, ( #12 ) ) ;
#98 = APPROVAL ( #196, 'UNSPECIFIED' ) ;
#99 = CALENDAR_DATE ( 2021, 12, 11 ) ;
#100 = PERSON_AND_ORGANIZATION_ROLE ( 'creator' ) ;
#101 = EDGE_LOOP ( 'NONE', ( #51 ) ) ;
#102 = APPROVAL ( #179, 'UNSPECIFIED' ) ;
#103 = DIRECTION ( 'NONE',  ( 0.0000000000000000000, 1.000000000000000000, 0.0000000000000000000 ) ) ;
#104 = UNCERTAINTY_MEASURE_WITH_UNIT (LENGTH_MEASURE( 1.000000000000000082E-05 ), #57, 'distance_accuracy_value', 'NONE');
#105 = CARTESIAN_POINT ( 'NONE',  ( -2.137915722948479128E-30, 7.498798913309288039E-32, -6.123233995736766282E-16 ) ) ;
#106 = PLANE ( 'NONE',  #159 ) ;
#107 = DIRECTION ( 'NONE',  ( -3.491481338843133355E-15, 1.224646799147353207E-16, -1.000000000000000000 ) ) ;
#108 = CC_DESIGN_PERSON_AND_ORGANIZATION_ASSIGNMENT ( #145, #82, ( #9 ) ) ;
#109 = CALENDAR_DATE ( 2021, 12, 11 ) ;
#110 = MANIFOLD_SOLID_BREP ( 'Corps-Déplacer/Copier1[1]', #173 ) ;
#111 = AXIS2_PLACEMENT_3D ( 'NONE', #1, #122, #199 ) ;
#112 = APPLICATION_CONTEXT ( 'configuration controlled 3d designs of mechanical parts and assemblies' ) ;
#113 = ADVANCED_BREP_SHAPE_REPRESENTATION ( '30853', ( #110, #183, #46 ), #158 ) ;
#114 = PERSON_AND_ORGANIZATION_ROLE ( 'design_owner' ) ;
#115 = CIRCLE ( 'NONE', #189, 4.999999999999999112 ) ;
#116 = ADVANCED_FACE ( 'NONE', ( #170 ), #106, .F. ) ;
#117 = CALENDAR_DATE ( 2021, 12, 11 ) ;
#118 = ORIENTED_EDGE ( 'NONE', *, *, #3, .T. ) ;
#119 = DIRECTION ( 'NONE',  ( -3.491481338843133355E-15, 1.224646799147353207E-16, -1.000000000000000000 ) ) ;
#120 = DIRECTION ( 'NONE',  ( 4.275831445896958607E-31, 1.000000000000000000, 1.224646799147353207E-16 ) ) ;
#121 = CARTESIAN_POINT ( 'NONE',  ( 1.047444401652940007E-13, -3.673940397442059178E-15, 30.00000000000000000 ) ) ;
#122 = DIRECTION ( 'NONE',  ( 3.491481338843133355E-15, -1.224646799147353207E-16, 1.000000000000000000 ) ) ;
#123 = LOCAL_TIME ( 11, 8, 54.00000000000000000, #65 ) ;
#124 = CYLINDRICAL_SURFACE ( 'NONE', #30, 4.999999999999999112 ) ;
#125 = APPROVAL_ROLE ( '' ) ;
#126 = CC_DESIGN_PERSON_AND_ORGANIZATION_ASSIGNMENT ( #130, #5, ( #91 ) ) ;
#127 = DATE_TIME_ROLE ( 'classification_date' ) ;
#128 = LOCAL_TIME ( 11, 8, 54.00000000000000000, #50 ) ;
#129 = ADVANCED_FACE ( 'NONE', ( #45, #76 ), #133, .T. ) ;
#130 = PERSON_AND_ORGANIZATION ( #87, #181 ) ;
#131 = ORIENTED_EDGE ( 'NONE', *, *, #35, .T. ) ;
#132 = AXIS2_PLACEMENT_3D ( 'NONE', #121, #157, #201 ) ;
#133 = CONICAL_SURFACE ( 'NONE', #193, 4.500000000000005329, 0.7853981633974415066 ) ;
#134 = APPLICATION_PROTOCOL_DEFINITION ( 'international standard', 'config_control_design', 1994, #112 ) ;
#135 = DATE_AND_TIME ( #10, #154 ) ;
#136 = DIRECTION ( 'NONE',  ( -3.491481338843133355E-15, 1.224646799147353207E-16, -1.000000000000000000 ) ) ;
#137 = DIRECTION ( 'NONE',  ( -3.491481338843133355E-15, 1.224646799147353207E-16, -1.000000000000000000 ) ) ;
#138 = CARTESIAN_POINT ( 'NONE',  ( 0.0000000000000000000, 0.0000000000000000000, 0.0000000000000000000 ) ) ;
#139 = VERTEX_POINT ( 'NONE', #153 ) ;
#140 = DIRECTION ( 'NONE',  ( -4.275831445896958607E-31, -1.000000000000000000, -1.224646799147353207E-16 ) ) ;
#141 = CIRCLE ( 'NONE', #54, 4.999999999999999112 ) ;
#142 = AXIS2_PLACEMENT_3D ( 'NONE', #60, #119, #78 ) ;
#143 = SECURITY_CLASSIFICATION_LEVEL ( 'unclassified' ) ;
#144 = EDGE_CURVE ( 'NONE', #155, #155, #63, .T. ) ;
#145 = PERSON_AND_ORGANIZATION ( #87, #181 ) ;
#146 = ORIENTED_EDGE ( 'NONE', *, *, #144, .T. ) ;
#147 = DATE_AND_TIME ( #117, #148 ) ;
#148 = LOCAL_TIME ( 11, 8, 54.00000000000000000, #166 ) ;
#149 = AXIS2_PLACEMENT_3D ( 'NONE', #89, #107, #188 ) ;
#150 = CARTESIAN_POINT ( 'NONE',  ( 0.0000000000000000000, 0.0000000000000000000, 0.0000000000000000000 ) ) ;
#151 = PERSON_AND_ORGANIZATION ( #87, #181 ) ;
#152 = DIRECTION ( 'NONE',  ( -3.491481338843133355E-15, 1.224646799147353207E-16, -1.000000000000000000 ) ) ;
#153 = CARTESIAN_POINT ( 'NONE',  ( 1.047444401652940007E-13, 4.999999999999995559, 30.00000000000000000 ) ) ;
#154 = LOCAL_TIME ( 11, 8, 54.00000000000000000, #13 ) ;
#155 = VERTEX_POINT ( 'NONE', #16 ) ;
#156 = PLANE ( 'NONE',  #177 ) ;
#157 = DIRECTION ( 'NONE',  ( -3.491481338843133355E-15, 1.224646799147353207E-16, -1.000000000000000000 ) ) ;
#158 =( GEOMETRIC_REPRESENTATION_CONTEXT ( 3 ) GLOBAL_UNCERTAINTY_ASSIGNED_CONTEXT ( ( #104 ) ) GLOBAL_UNIT_ASSIGNED_CONTEXT ( ( #57, #164, #41 ) ) REPRESENTATION_CONTEXT ( 'NONE', 'WORKASPACE' ) );
#159 = AXIS2_PLACEMENT_3D ( 'NONE', #34, #80, #140 ) ;
#160 = DATE_AND_TIME ( #109, #128 ) ;
#161 = CC_DESIGN_DATE_AND_TIME_ASSIGNMENT ( #160, #127, ( #91 ) ) ;
#162 = PERSON_AND_ORGANIZATION ( #87, #181 ) ;
#163 = DATE_AND_TIME ( #99, #55 ) ;
#164 =( NAMED_UNIT ( * ) PLANE_ANGLE_UNIT ( ) SI_UNIT ( $, .RADIAN. ) );
#165 = APPROVAL_ROLE ( '' ) ;
#166 = COORDINATED_UNIVERSAL_TIME_OFFSET ( 1, 0, .AHEAD. ) ;
#167 = FACE_OUTER_BOUND ( 'NONE', #68, .T. ) ;
#168 = FACE_OUTER_BOUND ( 'NONE', #27, .T. ) ;
#169 = CC_DESIGN_APPROVAL ( #92, ( #91 ) ) ;
#170 = FACE_OUTER_BOUND ( 'NONE', #4, .T. ) ;
#171 = DIRECTION ( 'NONE',  ( -3.491481338843133355E-15, 1.224646799147353207E-16, -1.000000000000000000 ) ) ;
#172 = DIRECTION ( 'NONE',  ( -3.491481338843133355E-15, 1.224646799147353207E-16, -1.000000000000000000 ) ) ;
#173 = CLOSED_SHELL ( 'NONE', ( #116, #48, #129, #192 ) ) ;
#174 = APPROVAL_DATE_TIME ( #20, #92 ) ;
#175 = PRODUCT_DEFINITION_SHAPE ( 'NONE', 'NONE',  #12 ) ;
#176 = APPROVAL_PERSON_ORGANIZATION ( #162, #92, #125 ) ;
#177 = AXIS2_PLACEMENT_3D ( 'NONE', #17, #137, #120 ) ;
#178 = CC_DESIGN_PERSON_AND_ORGANIZATION_ASSIGNMENT ( #151, #86, ( #12 ) ) ;
#179 = APPROVAL_STATUS ( 'not_yet_approved' ) ;
#180 = CLOSED_SHELL ( 'NONE', ( #95, #19, #185 ) ) ;
#181 = ORGANIZATION ( 'UNSPECIFIED', 'UNSPECIFIED', '' ) ;
#182 = PERSON_AND_ORGANIZATION ( #87, #181 ) ;
#183 = MANIFOLD_SOLID_BREP ( 'Corps-Déplacer/Copier1[2]', #180 ) ;
#184 = EDGE_LOOP ( 'NONE', ( #146 ) ) ;
#185 = ADVANCED_FACE ( 'NONE', ( #168 ), #94, .T. ) ;
#186 = VERTEX_POINT ( 'NONE', #88 ) ;
#187 = CARTESIAN_POINT ( 'NONE',  ( 2.496409157272840412E-13, 4.999999999999990230, 71.50000000000000000 ) ) ;
#188 = DIRECTION ( 'NONE',  ( 4.275831445896958607E-31, 1.000000000000000000, 1.224646799147353207E-16 ) ) ;
#189 = AXIS2_PLACEMENT_3D ( 'NONE', #44, #152, #28 ) ;
#190 = FACE_OUTER_BOUND ( 'NONE', #84, .T. ) ;
#191 = FACE_OUTER_BOUND ( 'NONE', #195, .T. ) ;
#192 = ADVANCED_FACE ( 'NONE', ( #61 ), #156, .F. ) ;
#193 = AXIS2_PLACEMENT_3D ( 'NONE', #43, #136, #103 ) ;
#194 = ORIENTED_EDGE ( 'NONE', *, *, #35, .F. ) ;
#195 = EDGE_LOOP ( 'NONE', ( #194 ) ) ;
#196 = APPROVAL_STATUS ( 'not_yet_approved' ) ;
#197 = COORDINATED_UNIVERSAL_TIME_OFFSET ( 1, 0, .AHEAD. ) ;
#198 = EDGE_CURVE ( 'NONE', #77, #77, #72, .T. ) ;
#199 = DIRECTION ( 'NONE',  ( -4.275831445896958607E-31, -1.000000000000000000, -1.224646799147353207E-16 ) ) ;
#200 = VERTEX_POINT ( 'NONE', #187 ) ;
#201 = DIRECTION ( 'NONE',  ( 0.0000000000000000000, 1.000000000000000000, 0.0000000000000000000 ) ) ;
#202 = CC_DESIGN_PERSON_AND_ORGANIZATION_ASSIGNMENT ( #40, #100, ( #9 ) ) ;
#203 = CARTESIAN_POINT ( 'NONE',  ( 2.513866563967056016E-13, 4.499999999999997335, 72.00000000000000000 ) ) ;
ENDSEC;
END-ISO-10303-21;
