ISO-10303-21;
HEADER;
FILE_DESCRIPTION (( 'STEP AP203' ),
    '1' );
FILE_NAME ('306969.step',
    '2023-09-27T05:46:06',
    ( '' ),
    ( '' ),
    'SwSTEP 2.0',
    'SolidWorks 2022',
    '' );
FILE_SCHEMA (( 'CONFIG_CONTROL_DESIGN' ));
ENDSEC;

DATA;
#1 = APPLICATION_PROTOCOL_DEFINITION ( 'international standard', 'config_control_design', 1994, #44 ) ;
#2 = CONICAL_SURFACE ( 'NONE', #275, 0.1149999999999999772, 1.047197551196570320 ) ;
#3 = PERSON_AND_ORGANIZATION_ROLE ( 'creator' ) ;
#4 = LOCAL_TIME ( 7, 46, 6.000000000000000000, #88 ) ;
#5 = ORIENTED_EDGE ( 'NONE', *, *, #163, .T. ) ;
#6 = EDGE_LOOP ( 'NONE', ( #5 ) ) ;
#7 = ADVANCED_FACE ( 'NONE', ( #46, #186 ), #2, .T. ) ;
#8 = FACE_OUTER_BOUND ( 'NONE', #161, .T. ) ;
#9 = CARTESIAN_POINT ( 'NONE',  ( 1.411065383596237464E-16, 0.000000000000000000, 0.04041451884327640354 ) ) ;
#10 = DIRECTION ( 'NONE',  ( 1.000000000000000000, 0.000000000000000000, -3.491481338843133355E-15 ) ) ;
#11 = AXIS2_PLACEMENT_3D ( 'NONE', #220, #101, #197 ) ;
#12 = CARTESIAN_POINT ( 'NONE',  ( 0.1850000000000001921, 0.000000000000000000, 0.04041451884327575822 ) ) ;
#13 = DIRECTION ( 'NONE',  ( 1.000000000000000000, 0.000000000000000000, -3.479702918450097752E-15 ) ) ;
#14 = CARTESIAN_POINT ( 'NONE',  ( 1.200000000000125855, 0.000000000000000000, 37.99999999999999289 ) ) ;
#15 = CARTESIAN_POINT ( 'NONE',  ( 3.871421004129297064E-15, 0.000000000000000000, 1.108819045102515943 ) ) ;
#16 = PRODUCT_DEFINITION ( 'UNKNOWN', '', #55, #249 ) ;
#17 = FACE_OUTER_BOUND ( 'NONE', #261, .T. ) ;
#18 = TOROIDAL_SURFACE ( 'NONE', #180, 1.115000000000000213, 1.000000000000000000 ) ;
#19 = CARTESIAN_POINT ( 'NONE',  ( 0.1490741737109337606, 0.000000000000000000, 1.108819045102515499 ) ) ;
#20 = APPROVAL_DATE_TIME ( #223, #62 ) ;
#21 = CALENDAR_DATE ( 2023, 27, 9 ) ;
#22 = APPROVAL ( #185, 'UNSPECIFIED' ) ;
#23 = CALENDAR_DATE ( 2023, 27, 9 ) ;
#24 = CYLINDRICAL_SURFACE ( 'NONE', #212, 0.1850000000000000533 ) ;
#25 = EDGE_LOOP ( 'NONE', ( #66 ) ) ;
#26 = DIRECTION ( 'NONE',  ( 3.491481338843133355E-15, -0.000000000000000000, 1.000000000000000000 ) ) ;
#27 = ADVANCED_BREP_SHAPE_REPRESENTATION ( '306969', ( #238, #11 ), #225 ) ;
#28 = DIRECTION ( 'NONE',  ( 3.491481338843133355E-15, -0.000000000000000000, 1.000000000000000000 ) ) ;
#29 = EDGE_LOOP ( 'NONE', ( #70 ) ) ;
#30 = DIRECTION ( 'NONE',  ( -3.491481338843133355E-15, 0.000000000000000000, -1.000000000000000000 ) ) ;
#31 = CIRCLE ( 'NONE', #147, 1.199999999999993072 ) ;
#32 = CARTESIAN_POINT ( 'NONE',  ( 1.774761356392356924E-16, 0.000000000000000000, 0.05083118550994192297 ) ) ;
#33 = EDGE_CURVE ( 'NONE', #190, #190, #213, .T. ) ;
#34 = VERTEX_POINT ( 'NONE', #12 ) ;
#35 = DIRECTION ( 'NONE',  ( -1.000000000000000000, 0.000000000000000000, 3.491481338843133355E-15 ) ) ;
#36 = AXIS2_PLACEMENT_3D ( 'NONE', #230, #120, #139 ) ;
#37 = DIRECTION ( 'NONE',  ( 1.000000000000000000, 0.000000000000000000, -2.909161648852426116E-15 ) ) ;
#38 = SECURITY_CLASSIFICATION_LEVEL ( 'unclassified' ) ;
#39 = VERTEX_POINT ( 'NONE', #195 ) ;
#40 = CIRCLE ( 'NONE', #77, 0.1850000000000000533 ) ;
#41 = CIRCLE ( 'NONE', #155, 1.499999999999996225 ) ;
#42 =( NAMED_UNIT ( * ) PLANE_ANGLE_UNIT ( ) SI_UNIT ( $, .RADIAN. ) );
#43 = VERTEX_POINT ( 'NONE', #102 ) ;
#44 = APPLICATION_CONTEXT ( 'configuration controlled 3d designs of mechanical parts and assemblies' ) ;
#45 =( LENGTH_UNIT ( ) NAMED_UNIT ( * ) SI_UNIT ( .MILLI., .METRE. ) );
#46 = FACE_OUTER_BOUND ( 'NONE', #50, .T. ) ;
#47 = ORIENTED_EDGE ( 'NONE', *, *, #198, .T. ) ;
#48 = EDGE_LOOP ( 'NONE', ( #162 ) ) ;
#49 = APPROVAL_DATE_TIME ( #160, #22 ) ;
#50 = EDGE_LOOP ( 'NONE', ( #184 ) ) ;
#51 = FACE_OUTER_BOUND ( 'NONE', #68, .T. ) ;
#52 = CARTESIAN_POINT ( 'NONE',  ( 1.316288464743861212E-13, 0.000000000000000000, 37.69999999999999574 ) ) ;
#53 = FACE_BOUND ( 'NONE', #259, .T. ) ;
#54 = CIRCLE ( 'NONE', #221, 0.1490741737109298748 ) ;
#55 = PRODUCT_DEFINITION_FORMATION_WITH_SPECIFIED_SOURCE ( 'ANY', '', #83, .NOT_KNOWN. ) ;
#56 = DIRECTION ( 'NONE',  ( 3.491481338843133355E-15, -0.000000000000000000, 1.000000000000000000 ) ) ;
#57 = DIRECTION ( 'NONE',  ( 3.491481338843133355E-15, -0.000000000000000000, 1.000000000000000000 ) ) ;
#58 = APPROVAL ( #156, 'UNSPECIFIED' ) ;
#59 = DIRECTION ( 'NONE',  ( 1.000000000000000000, 0.000000000000000000, -3.771137991253925516E-15 ) ) ;
#60 = AXIS2_PLACEMENT_3D ( 'NONE', #149, #56, #188 ) ;
#61 = PERSON_AND_ORGANIZATION_ROLE ( 'design_supplier' ) ;
#62 = APPROVAL ( #255, 'UNSPECIFIED' ) ;
#63 = APPROVAL_ROLE ( '' ) ;
#64 = DATE_AND_TIME ( #137, #262 ) ;
#65 = ORIENTED_EDGE ( 'NONE', *, *, #210, .F. ) ;
#66 = ORIENTED_EDGE ( 'NONE', *, *, #264, .F. ) ;
#67 = CALENDAR_DATE ( 2023, 27, 9 ) ;
#68 = EDGE_LOOP ( 'NONE', ( #94 ) ) ;
#69 = EDGE_LOOP ( 'NONE', ( #158 ) ) ;
#70 = ORIENTED_EDGE ( 'NONE', *, *, #210, .T. ) ;
#71 = CONICAL_SURFACE ( 'NONE', #129, 1.499999999999996225, 0.7853981633974504994 ) ;
#72 = CC_DESIGN_DATE_AND_TIME_ASSIGNMENT ( #260, #266, ( #271 ) ) ;
#73 = DIRECTION ( 'NONE',  ( 3.491481338843133355E-15, -0.000000000000000000, 1.000000000000000000 ) ) ;
#74 = UNCERTAINTY_MEASURE_WITH_UNIT (LENGTH_MEASURE( 1.000000000000000082E-05 ), #45, 'distance_accuracy_value', 'NONE');
#75 = CARTESIAN_POINT ( 'NONE',  ( 1.774761356392356924E-16, 0.000000000000000000, 0.05083118550994192297 ) ) ;
#76 = CARTESIAN_POINT ( 'NONE',  ( 1.326762908760390423E-13, 0.000000000000000000, 38.00000000000000000 ) ) ;
#77 = AXIS2_PLACEMENT_3D ( 'NONE', #75, #208, #13 ) ;
#78 = CC_DESIGN_SECURITY_CLASSIFICATION ( #271, ( #55 ) ) ;
#79 = FACE_OUTER_BOUND ( 'NONE', #204, .T. ) ;
#80 = CYLINDRICAL_SURFACE ( 'NONE', #110, 0.1150000000000000328 ) ;
#81 = PERSON_AND_ORGANIZATION ( #175, #99 ) ;
#82 = CARTESIAN_POINT ( 'NONE',  ( 0.1150000000000030581, 0.000000000000000000, 0.8499999999999962030 ) ) ;
#83 = PRODUCT ( '306969', '306969', '', ( #219 ) ) ;
#84 = AXIS2_PLACEMENT_3D ( 'NONE', #227, #26, #115 ) ;
#85 = CIRCLE ( 'NONE', #196, 0.1149999999999999772 ) ;
#86 = PRODUCT_DEFINITION_SHAPE ( 'NONE', 'NONE',  #16 ) ;
#87 = CARTESIAN_POINT ( 'NONE',  ( 0.000000000000000000, 0.000000000000000000, 0.000000000000000000 ) ) ;
#88 = COORDINATED_UNIVERSAL_TIME_OFFSET ( 1, 0, .AHEAD. ) ;
#89 = LOCAL_TIME ( 7, 46, 6.000000000000000000, #143 ) ;
#90 = EDGE_LOOP ( 'NONE', ( #179 ) ) ;
#91 = EDGE_LOOP ( 'NONE', ( #141 ) ) ;
#92 = PERSON_AND_ORGANIZATION_ROLE ( 'classification_officer' ) ;
#93 = ORIENTED_EDGE ( 'NONE', *, *, #107, .T. ) ;
#94 = ORIENTED_EDGE ( 'NONE', *, *, #256, .F. ) ;
#95 = CC_DESIGN_APPROVAL ( #58, ( #55 ) ) ;
#96 = FACE_OUTER_BOUND ( 'NONE', #6, .T. ) ;
#97 = DIRECTION ( 'NONE',  ( -3.491481338843133355E-15, 0.000000000000000000, -1.000000000000000000 ) ) ;
#98 = DIRECTION ( 'NONE',  ( 3.491481338843133355E-15, -0.000000000000000000, 1.000000000000000000 ) ) ;
#99 = ORGANIZATION ( 'UNSPECIFIED', 'UNSPECIFIED', '' ) ;
#100 = CARTESIAN_POINT ( 'NONE',  ( 0.000000000000000000, 0.000000000000000000, 0.000000000000000000 ) ) ;
#101 = DIRECTION ( 'NONE',  ( 0.000000000000000000, 0.000000000000000000, 1.000000000000000000 ) ) ;
#102 = CARTESIAN_POINT ( 'NONE',  ( 1.500000000000127676, 0.000000000000000000, 37.69999999999998863 ) ) ;
#103 = CONICAL_SURFACE ( 'NONE', #113, 0.1850000000000000533, 1.047197551196644705 ) ;
#104 = VERTEX_POINT ( 'NONE', #132 ) ;
#105 = ADVANCED_FACE ( 'NONE', ( #8, #265 ), #24, .T. ) ;
#106 = PERSON_AND_ORGANIZATION_ROLE ( 'creator' ) ;
#107 = EDGE_CURVE ( 'NONE', #34, #34, #232, .T. ) ;
#108 = CC_DESIGN_DATE_AND_TIME_ASSIGNMENT ( #64, #177, ( #16 ) ) ;
#109 = DATE_AND_TIME ( #21, #222 ) ;
#110 = AXIS2_PLACEMENT_3D ( 'NONE', #76, #98, #273 ) ;
#111 = ORIENTED_EDGE ( 'NONE', *, *, #218, .T. ) ;
#112 = EDGE_LOOP ( 'NONE', ( #242 ) ) ;
#113 = AXIS2_PLACEMENT_3D ( 'NONE', #32, #172, #272 ) ;
#114 = AXIS2_PLACEMENT_3D ( 'NONE', #253, #170, #59 ) ;
#115 = DIRECTION ( 'NONE',  ( 1.000000000000000000, 0.000000000000000000, -3.469446951953614189E-15 ) ) ;
#116 = ADVANCED_FACE ( 'NONE', ( #51 ), #144, .F. ) ;
#117 = ADVANCED_FACE ( 'NONE', ( #226, #234 ), #103, .T. ) ;
#118 = PERSON_AND_ORGANIZATION ( #175, #99 ) ;
#119 = DIRECTION ( 'NONE',  ( 1.000000000000000000, 0.000000000000000000, 0.000000000000000000 ) ) ;
#120 = DIRECTION ( 'NONE',  ( 3.491481338843133355E-15, -0.000000000000000000, 1.000000000000000000 ) ) ;
#121 = CLOSED_SHELL ( 'NONE', ( #116, #7, #105, #117, #244, #257, #135, #194, #217, #229 ) ) ;
#122 = CARTESIAN_POINT ( 'NONE',  ( 1.326762908760390423E-13, 0.000000000000000000, 38.00000000000000000 ) ) ;
#123 = AXIS2_PLACEMENT_3D ( 'NONE', #15, #173, #37 ) ;
#124 = DIRECTION ( 'NONE',  ( 3.491481338843133355E-15, -0.000000000000000000, 1.000000000000000000 ) ) ;
#125 = CC_DESIGN_PERSON_AND_ORGANIZATION_ASSIGNMENT ( #81, #106, ( #16 ) ) ;
#126 = CYLINDRICAL_SURFACE ( 'NONE', #60, 1.499999999999998002 ) ;
#127 = AXIS2_PLACEMENT_3D ( 'NONE', #9, #166, #247 ) ;
#128 = CC_DESIGN_APPROVAL ( #62, ( #16 ) ) ;
#129 = AXIS2_PLACEMENT_3D ( 'NONE', #52, #97, #191 ) ;
#130 = CC_DESIGN_PERSON_AND_ORGANIZATION_ASSIGNMENT ( #118, #92, ( #271 ) ) ;
#131 = CARTESIAN_POINT ( 'NONE',  ( 3.871421004129297064E-15, 0.000000000000000000, 1.108819045102515943 ) ) ;
#132 = CARTESIAN_POINT ( 'NONE',  ( 0.1850000000000002476, 0.000000000000000000, 0.05083118550994127766 ) ) ;
#133 = CARTESIAN_POINT ( 'NONE',  ( 0.1150000000000002964, 0.000000000000000000, 0.09124570435321098516 ) ) ;
#134 = LOCAL_TIME ( 7, 46, 6.000000000000000000, #274 ) ;
#135 = ADVANCED_FACE ( 'NONE', ( #96 ), #252, .F. ) ;
#136 = CALENDAR_DATE ( 2023, 27, 9 ) ;
#137 = CALENDAR_DATE ( 2023, 27, 9 ) ;
#138 = VERTEX_POINT ( 'NONE', #19 ) ;
#139 = DIRECTION ( 'NONE',  ( 1.000000000000000000, 0.000000000000000000, -3.491481338843133355E-15 ) ) ;
#140 = EDGE_LOOP ( 'NONE', ( #111 ) ) ;
#141 = ORIENTED_EDGE ( 'NONE', *, *, #218, .F. ) ;
#142 = ORIENTED_EDGE ( 'NONE', *, *, #245, .T. ) ;
#143 = COORDINATED_UNIVERSAL_TIME_OFFSET ( 1, 0, .AHEAD. ) ;
#144 = PLANE ( 'NONE',  #36 ) ;
#145 = DIRECTION ( 'NONE',  ( 1.000000000000000000, 0.000000000000000000, -3.535441866800558623E-15 ) ) ;
#146 = PRODUCT_RELATED_PRODUCT_CATEGORY ( 'detail', '', ( #83 ) ) ;
#147 = AXIS2_PLACEMENT_3D ( 'NONE', #122, #57, #169 ) ;
#148 = FACE_OUTER_BOUND ( 'NONE', #69, .T. ) ;
#149 = CARTESIAN_POINT ( 'NONE',  ( 1.326762908760390423E-13, 0.000000000000000000, 38.00000000000000000 ) ) ;
#150 = CARTESIAN_POINT ( 'NONE',  ( 1.316288464743861212E-13, 0.000000000000000000, 37.69999999999999574 ) ) ;
#151 = FACE_OUTER_BOUND ( 'NONE', #140, .T. ) ;
#152 = CC_DESIGN_APPROVAL ( #22, ( #271 ) ) ;
#153 = APPLICATION_PROTOCOL_DEFINITION ( 'international standard', 'config_control_design', 1994, #211 ) ;
#154 = VERTEX_POINT ( 'NONE', #133 ) ;
#155 = AXIS2_PLACEMENT_3D ( 'NONE', #150, #192, #269 ) ;
#156 = APPROVAL_STATUS ( 'not_yet_approved' ) ;
#157 = VERTEX_POINT ( 'NONE', #82 ) ;
#158 = ORIENTED_EDGE ( 'NONE', *, *, #198, .F. ) ;
#159 = AXIS2_PLACEMENT_3D ( 'NONE', #100, #73, #167 ) ;
#160 = DATE_AND_TIME ( #67, #89 ) ;
#161 = EDGE_LOOP ( 'NONE', ( #65 ) ) ;
#162 = ORIENTED_EDGE ( 'NONE', *, *, #163, .F. ) ;
#163 = EDGE_CURVE ( 'NONE', #270, #270, #31, .T. ) ;
#164 = ORIENTED_EDGE ( 'NONE', *, *, #256, .T. ) ;
#165 = APPROVAL_ROLE ( '' ) ;
#166 = DIRECTION ( 'NONE',  ( 3.491481338843133355E-15, -0.000000000000000000, 1.000000000000000000 ) ) ;
#167 = DIRECTION ( 'NONE',  ( 1.000000000000000000, 0.000000000000000000, -3.491481338843133355E-15 ) ) ;
#168 = CC_DESIGN_PERSON_AND_ORGANIZATION_ASSIGNMENT ( #240, #237, ( #83 ) ) ;
#169 = DIRECTION ( 'NONE',  ( 1.000000000000000000, 0.000000000000000000, -5.782411586589390376E-15 ) ) ;
#170 = DIRECTION ( 'NONE',  ( 3.491481338843133355E-15, -0.000000000000000000, 1.000000000000000000 ) ) ;
#171 = APPROVAL_PERSON_ORGANIZATION ( #182, #22, #165 ) ;
#172 = DIRECTION ( 'NONE',  ( -3.491481338843133355E-15, 0.000000000000000000, -1.000000000000000000 ) ) ;
#173 = DIRECTION ( 'NONE',  ( 3.491481338843133355E-15, -0.000000000000000000, 1.000000000000000000 ) ) ;
#174 = PERSON_AND_ORGANIZATION ( #175, #99 ) ;
#175 = PERSON ( 'UNSPECIFIED', 'UNSPECIFIED', 'UNSPECIFIED', ('UNSPECIFIED'), ('UNSPECIFIED'), ('UNSPECIFIED') ) ;
#176 = COORDINATED_UNIVERSAL_TIME_OFFSET ( 1, 0, .AHEAD. ) ;
#177 = DATE_TIME_ROLE ( 'creation_date' ) ;
#178 = CC_DESIGN_PERSON_AND_ORGANIZATION_ASSIGNMENT ( #258, #61, ( #55 ) ) ;
#179 = ORIENTED_EDGE ( 'NONE', *, *, #264, .T. ) ;
#180 = AXIS2_PLACEMENT_3D ( 'NONE', #268, #189, #251 ) ;
#181 = APPROVAL_PERSON_ORGANIZATION ( #193, #62, #63 ) ;
#182 = PERSON_AND_ORGANIZATION ( #175, #99 ) ;
#183 = EDGE_LOOP ( 'NONE', ( #164 ) ) ;
#184 = ORIENTED_EDGE ( 'NONE', *, *, #107, .F. ) ;
#185 = APPROVAL_STATUS ( 'not_yet_approved' ) ;
#186 = FACE_BOUND ( 'NONE', #183, .T. ) ;
#187 = CONICAL_SURFACE ( 'NONE', #123, 0.1490741737109298748, 0.2617993877991428575 ) ;
#188 = DIRECTION ( 'NONE',  ( 1.000000000000000000, 0.000000000000000000, -4.625929269271491633E-15 ) ) ;
#189 = DIRECTION ( 'NONE',  ( 3.491481338843133355E-15, -0.000000000000000000, 1.000000000000000000 ) ) ;
#190 = VERTEX_POINT ( 'NONE', #231 ) ;
#191 = DIRECTION ( 'NONE',  ( -1.000000000000000000, 0.000000000000000000, 4.625929269271497155E-15 ) ) ;
#192 = DIRECTION ( 'NONE',  ( 3.491481338843133355E-15, -0.000000000000000000, 1.000000000000000000 ) ) ;
#193 = PERSON_AND_ORGANIZATION ( #175, #99 ) ;
#194 = ADVANCED_FACE ( 'NONE', ( #148, #236 ), #18, .F. ) ;
#195 = CARTESIAN_POINT ( 'NONE',  ( 0.1149999999999999772, 0.000000000000000000, -4.015203539669602668E-16 ) ) ;
#196 = AXIS2_PLACEMENT_3D ( 'NONE', #233, #209, #145 ) ;
#197 = DIRECTION ( 'NONE',  ( 1.000000000000000000, 0.000000000000000000, 0.000000000000000000 ) ) ;
#198 = EDGE_CURVE ( 'NONE', #138, #138, #54, .T. ) ;
#199 = PERSON_AND_ORGANIZATION ( #175, #99 ) ;
#200 = AXIS2_PLACEMENT_3D ( 'NONE', #216, #30, #35 ) ;
#201 = CC_DESIGN_PERSON_AND_ORGANIZATION_ASSIGNMENT ( #199, #3, ( #55 ) ) ;
#202 = SHAPE_DEFINITION_REPRESENTATION ( #86, #27 ) ;
#203 = APPROVAL_PERSON_ORGANIZATION ( #174, #58, #241 ) ;
#204 = EDGE_LOOP ( 'NONE', ( #263 ) ) ;
#205 = EDGE_LOOP ( 'NONE', ( #142 ) ) ;
#206 = ORIENTED_EDGE ( 'NONE', *, *, #33, .F. ) ;
#207 = DIRECTION ( 'NONE',  ( 1.000000000000000000, 0.000000000000000000, -2.909161648852426116E-15 ) ) ;
#208 = DIRECTION ( 'NONE',  ( 3.491481338843133355E-15, -0.000000000000000000, 1.000000000000000000 ) ) ;
#209 = DIRECTION ( 'NONE',  ( 3.491481338843133355E-15, -0.000000000000000000, 1.000000000000000000 ) ) ;
#210 = EDGE_CURVE ( 'NONE', #104, #104, #40, .T. ) ;
#211 = APPLICATION_CONTEXT ( 'configuration controlled 3d designs of mechanical parts and assemblies' ) ;
#212 = AXIS2_PLACEMENT_3D ( 'NONE', #228, #28, #119 ) ;
#213 = CIRCLE ( 'NONE', #84, 1.500000000000000000 ) ;
#214 = FACE_OUTER_BOUND ( 'NONE', #112, .T. ) ;
#215 = CIRCLE ( 'NONE', #114, 0.1150000000000000883 ) ;
#216 = CARTESIAN_POINT ( 'NONE',  ( 1.326762908760390423E-13, 1.199999999999993072, 38.00000000000000000 ) ) ;
#217 = ADVANCED_FACE ( 'NONE', ( #17, #53 ), #187, .T. ) ;
#218 = EDGE_CURVE ( 'NONE', #43, #43, #41, .T. ) ;
#219 = MECHANICAL_CONTEXT ( 'NONE', #211, 'mechanical' ) ;
#220 = CARTESIAN_POINT ( 'NONE',  ( 0.000000000000000000, 0.000000000000000000, 0.000000000000000000 ) ) ;
#221 = AXIS2_PLACEMENT_3D ( 'NONE', #131, #124, #207 ) ;
#222 = LOCAL_TIME ( 7, 46, 6.000000000000000000, #224 ) ;
#223 = DATE_AND_TIME ( #136, #134 ) ;
#224 = COORDINATED_UNIVERSAL_TIME_OFFSET ( 1, 0, .AHEAD. ) ;
#225 =( GEOMETRIC_REPRESENTATION_CONTEXT ( 3 ) GLOBAL_UNCERTAINTY_ASSIGNED_CONTEXT ( ( #74 ) ) GLOBAL_UNIT_ASSIGNED_CONTEXT ( ( #45, #42, #239 ) ) REPRESENTATION_CONTEXT ( 'NONE', 'WORKASPACE' ) );
#226 = FACE_BOUND ( 'NONE', #25, .T. ) ;
#227 = CARTESIAN_POINT ( 'NONE',  ( 2.147450564063965136E-14, 0.000000000000000000, 6.150542866070425774 ) ) ;
#228 = CARTESIAN_POINT ( 'NONE',  ( 1.326762908760390423E-13, 0.000000000000000000, 38.00000000000000000 ) ) ;
#229 = ADVANCED_FACE ( 'NONE', ( #250, #79 ), #126, .T. ) ;
#230 = CARTESIAN_POINT ( 'NONE',  ( 0.000000000000000000, 0.000000000000000000, 0.000000000000000000 ) ) ;
#231 = CARTESIAN_POINT ( 'NONE',  ( 1.500000000000021538, 0.000000000000000000, 6.150542866070420445 ) ) ;
#232 = CIRCLE ( 'NONE', #127, 0.1850000000000000533 ) ;
#233 = CARTESIAN_POINT ( 'NONE',  ( 3.185826739988352307E-16, 0.000000000000000000, 0.09124570435321138762 ) ) ;
#234 = FACE_OUTER_BOUND ( 'NONE', #29, .T. ) ;
#235 = FACE_OUTER_BOUND ( 'NONE', #90, .T. ) ;
#236 = FACE_OUTER_BOUND ( 'NONE', #205, .T. ) ;
#237 = PERSON_AND_ORGANIZATION_ROLE ( 'design_owner' ) ;
#238 = MANIFOLD_SOLID_BREP ( 'Corps-Déplacer/Copier1', #121 ) ;
#239 =( NAMED_UNIT ( * ) SI_UNIT ( $, .STERADIAN. ) SOLID_ANGLE_UNIT ( ) );
#240 = PERSON_AND_ORGANIZATION ( #175, #99 ) ;
#241 = APPROVAL_ROLE ( '' ) ;
#242 = ORIENTED_EDGE ( 'NONE', *, *, #245, .F. ) ;
#243 = DIRECTION ( 'NONE',  ( 3.491481338843133355E-15, -0.000000000000000000, 1.000000000000000000 ) ) ;
#244 = ADVANCED_FACE ( 'NONE', ( #214, #235 ), #80, .T. ) ;
#245 = EDGE_CURVE ( 'NONE', #157, #157, #215, .T. ) ;
#246 = CIRCLE ( 'NONE', #159, 0.1149999999999999772 ) ;
#247 = DIRECTION ( 'NONE',  ( 1.000000000000000000, 0.000000000000000000, -3.479702918450097752E-15 ) ) ;
#248 = FACE_BOUND ( 'NONE', #48, .T. ) ;
#249 = DESIGN_CONTEXT ( 'detailed design', #44, 'design' ) ;
#250 = FACE_OUTER_BOUND ( 'NONE', #91, .T. ) ;
#251 = DIRECTION ( 'NONE',  ( 1.000000000000000000, 0.000000000000000000, -3.491481338843133355E-15 ) ) ;
#252 = PLANE ( 'NONE',  #200 ) ;
#253 = CARTESIAN_POINT ( 'NONE',  ( 2.967759138016651519E-15, 0.000000000000000000, 0.8499999999999965361 ) ) ;
#254 = APPROVAL_DATE_TIME ( #109, #58 ) ;
#255 = APPROVAL_STATUS ( 'not_yet_approved' ) ;
#256 = EDGE_CURVE ( 'NONE', #39, #39, #246, .T. ) ;
#257 = ADVANCED_FACE ( 'NONE', ( #248, #151 ), #71, .T. ) ;
#258 = PERSON_AND_ORGANIZATION ( #175, #99 ) ;
#259 = EDGE_LOOP ( 'NONE', ( #47 ) ) ;
#260 = DATE_AND_TIME ( #23, #4 ) ;
#261 = EDGE_LOOP ( 'NONE', ( #206 ) ) ;
#262 = LOCAL_TIME ( 7, 46, 6.000000000000000000, #176 ) ;
#263 = ORIENTED_EDGE ( 'NONE', *, *, #33, .T. ) ;
#264 = EDGE_CURVE ( 'NONE', #154, #154, #85, .T. ) ;
#265 = FACE_OUTER_BOUND ( 'NONE', #267, .T. ) ;
#266 = DATE_TIME_ROLE ( 'classification_date' ) ;
#267 = EDGE_LOOP ( 'NONE', ( #93 ) ) ;
#268 = CARTESIAN_POINT ( 'NONE',  ( 2.967759138016663352E-15, 0.000000000000000000, 0.8500000000000000888 ) ) ;
#269 = DIRECTION ( 'NONE',  ( 1.000000000000000000, 0.000000000000000000, -4.625929269271497155E-15 ) ) ;
#270 = VERTEX_POINT ( 'NONE', #14 ) ;
#271 = SECURITY_CLASSIFICATION ( '', '', #38 ) ;
#272 = DIRECTION ( 'NONE',  ( -1.000000000000000000, 0.000000000000000000, 3.479702918450097752E-15 ) ) ;
#273 = DIRECTION ( 'NONE',  ( 1.000000000000000000, 0.000000000000000000, 0.000000000000000000 ) ) ;
#274 = COORDINATED_UNIVERSAL_TIME_OFFSET ( 1, 0, .AHEAD. ) ;
#275 = AXIS2_PLACEMENT_3D ( 'NONE', #87, #243, #10 ) ;
ENDSEC;
END-ISO-10303-21;
