ISO-10303-21;
HEADER;
FILE_DESCRIPTION (( 'STEP AP203' ),
    '1' );
FILE_NAME ('30687.step',
    '2021-12-06T12:58:41',
    ( '' ),
    ( '' ),
    'SwSTEP 2.0',
    'SolidWorks 2019',
    '' );
FILE_SCHEMA (( 'CONFIG_CONTROL_DESIGN' ));
ENDSEC;

DATA;
#1 = FACE_OUTER_BOUND ( 'NONE', #112, .T. ) ;
#2 = EDGE_LOOP ( 'NONE', ( #86 ) ) ;
#3 = APPROVAL_PERSON_ORGANIZATION ( #152, #159, #104 ) ;
#4 = DIRECTION ( 'NONE',  ( -3.491481338843133355E-15, 1.347111479062088010E-16, -1.000000000000000000 ) ) ;
#5 = CALENDAR_DATE ( 2021, 6, 12 ) ;
#6 = CALENDAR_DATE ( 2021, 6, 12 ) ;
#7 = PRODUCT_DEFINITION ( 'UNKNOWN', '', #120, #49 ) ;
#8 = MANIFOLD_SOLID_BREP ( 'Corps-Déplacer/Copier1', #42 ) ;
#9 = CARTESIAN_POINT ( 'NONE',  ( 3.491481338843121128E-15, 10.99999999999999645, 0.9999999999999965583 ) ) ;
#10 = ADVANCED_FACE ( 'NONE', ( #109, #147 ), #66, .T. ) ;
#11 = CARTESIAN_POINT ( 'NONE',  ( 3.491481338843128228E-15, -1.347111479062085792E-16, 0.9999999999999985567 ) ) ;
#12 = DIRECTION ( 'NONE',  ( 3.491481338843133355E-15, -1.347111479062088010E-16, 1.000000000000000000 ) ) ;
#13 = VERTEX_POINT ( 'NONE', #137 ) ;
#14 = ADVANCED_FACE ( 'NONE', ( #97, #1 ), #145, .T. ) ;
#15 = DATE_AND_TIME ( #5, #127 ) ;
#16 = COORDINATED_UNIVERSAL_TIME_OFFSET ( 1, 0, .AHEAD. ) ;
#17 = DATE_AND_TIME ( #142, #94 ) ;
#18 = COORDINATED_UNIVERSAL_TIME_OFFSET ( 1, 0, .AHEAD. ) ;
#19 = AXIS2_PLACEMENT_3D ( 'NONE', #9, #12, #81 ) ;
#20 = APPROVAL_PERSON_ORGANIZATION ( #132, #117, #71 ) ;
#21 = ORIENTED_EDGE ( 'NONE', *, *, #168, .T. ) ;
#22 = PERSON ( 'UNSPECIFIED', 'UNSPECIFIED', 'UNSPECIFIED', ('UNSPECIFIED'), ('UNSPECIFIED'), ('UNSPECIFIED') ) ;
#23 = DIRECTION ( 'NONE',  ( 4.703414590486652891E-31, 1.000000000000000000, 1.347111479062088010E-16 ) ) ;
#24 = LOCAL_TIME ( 13, 58, 41.00000000000000000, #18 ) ;
#25 = ORIENTED_EDGE ( 'NONE', *, *, #129, .F. ) ;
#26 = PRODUCT_DEFINITION_SHAPE ( 'NONE', 'NONE',  #7 ) ;
#27 = DIRECTION ( 'NONE',  ( 4.703414590486652891E-31, 1.000000000000000000, 1.347111479062088010E-16 ) ) ;
#28 = APPLICATION_PROTOCOL_DEFINITION ( 'international standard', 'config_control_design', 1994, #157 ) ;
#29 = CARTESIAN_POINT ( 'NONE',  ( 3.491481338843104167E-15, -1.347111479062076670E-16, 0.9999999999999915623 ) ) ;
#30 = VERTEX_POINT ( 'NONE', #61 ) ;
#31 = DATE_TIME_ROLE ( 'creation_date' ) ;
#32 = UNCERTAINTY_MEASURE_WITH_UNIT (LENGTH_MEASURE( 1.000000000000000082E-05 ), #47, 'distance_accuracy_value', 'NONE');
#33 = CC_DESIGN_PERSON_AND_ORGANIZATION_ASSIGNMENT ( #131, #73, ( #120 ) ) ;
#34 = COORDINATED_UNIVERSAL_TIME_OFFSET ( 1, 0, .AHEAD. ) ;
#35 = AXIS2_PLACEMENT_3D ( 'NONE', #11, #82, #83 ) ;
#36 = FACE_OUTER_BOUND ( 'NONE', #40, .T. ) ;
#37 = ORGANIZATION ( 'UNSPECIFIED', 'UNSPECIFIED', '' ) ;
#38 = ADVANCED_FACE ( 'NONE', ( #36, #133 ), #52, .T. ) ;
#39 = DIRECTION ( 'NONE',  ( -3.491481338843133355E-15, 1.347111479062088010E-16, -1.000000000000000000 ) ) ;
#40 = EDGE_LOOP ( 'NONE', ( #21 ) ) ;
#41 = EDGE_LOOP ( 'NONE', ( #121 ) ) ;
#42 = CLOSED_SHELL ( 'NONE', ( #38, #10, #14, #75 ) ) ;
#43 = APPROVAL_PERSON_ORGANIZATION ( #48, #99, #46 ) ;
#44 = DIRECTION ( 'NONE',  ( 0.0000000000000000000, 0.0000000000000000000, 1.000000000000000000 ) ) ;
#45 = CC_DESIGN_PERSON_AND_ORGANIZATION_ASSIGNMENT ( #95, #77, ( #120 ) ) ;
#46 = APPROVAL_ROLE ( '' ) ;
#47 =( LENGTH_UNIT ( ) NAMED_UNIT ( * ) SI_UNIT ( .MILLI., .METRE. ) );
#48 = PERSON_AND_ORGANIZATION ( #22, #37 ) ;
#49 = DESIGN_CONTEXT ( 'detailed design', #157, 'design' ) ;
#50 = DATE_TIME_ROLE ( 'classification_date' ) ;
#51 = CC_DESIGN_APPROVAL ( #99, ( #120 ) ) ;
#52 = PLANE ( 'NONE',  #119 ) ;
#53 = CC_DESIGN_APPROVAL ( #159, ( #7 ) ) ;
#54 = EDGE_LOOP ( 'NONE', ( #161 ) ) ;
#55 = ORIENTED_EDGE ( 'NONE', *, *, #168, .F. ) ;
#56 =( NAMED_UNIT ( * ) PLANE_ANGLE_UNIT ( ) SI_UNIT ( $, .RADIAN. ) );
#57 = EDGE_CURVE ( 'NONE', #115, #115, #114, .T. ) ;
#58 = VERTEX_POINT ( 'NONE', #139 ) ;
#59 = CALENDAR_DATE ( 2021, 6, 12 ) ;
#60 = AXIS2_PLACEMENT_3D ( 'NONE', #144, #136, #134 ) ;
#61 = CARTESIAN_POINT ( 'NONE',  ( 0.0000000000000000000, 62.50000000000000000, 0.0000000000000000000 ) ) ;
#62 = PERSON_AND_ORGANIZATION ( #22, #37 ) ;
#63 = SECURITY_CLASSIFICATION ( '', '', #96 ) ;
#64 = APPROVAL_STATUS ( 'not_yet_approved' ) ;
#65 = AXIS2_PLACEMENT_3D ( 'NONE', #76, #88, #100 ) ;
#66 = CYLINDRICAL_SURFACE ( 'NONE', #60, 62.50000000000000000 ) ;
#67 = PRODUCT ( '30687', '30687', '', ( #150 ) ) ;
#68 = CARTESIAN_POINT ( 'NONE',  ( 0.0000000000000000000, 0.0000000000000000000, 0.0000000000000000000 ) ) ;
#69 = APPLICATION_CONTEXT ( 'configuration controlled 3d designs of mechanical parts and assemblies' ) ;
#70 = DIRECTION ( 'NONE',  ( 4.703414590486652015E-31, 1.000000000000000000, 1.347111479062088010E-16 ) ) ;
#71 = APPROVAL_ROLE ( '' ) ;
#72 = CARTESIAN_POINT ( 'NONE',  ( -5.173756049535317654E-30, 1.996180270722931173E-31, -1.481822626968296713E-15 ) ) ;
#73 = PERSON_AND_ORGANIZATION_ROLE ( 'design_supplier' ) ;
#74 = CIRCLE ( 'NONE', #79, 11.00000000000000000 ) ;
#75 = ADVANCED_FACE ( 'NONE', ( #135, #148 ), #151, .F. ) ;
#76 = CARTESIAN_POINT ( 'NONE',  ( -2.939634119054158013E-29, 1.134193335638029014E-30, -8.419446744138049324E-15 ) ) ;
#77 = PERSON_AND_ORGANIZATION_ROLE ( 'creator' ) ;
#78 = APPROVAL_STATUS ( 'not_yet_approved' ) ;
#79 = AXIS2_PLACEMENT_3D ( 'NONE', #72, #4, #70 ) ;
#80 = CC_DESIGN_APPROVAL ( #117, ( #63 ) ) ;
#81 = DIRECTION ( 'NONE',  ( -4.703414590486652891E-31, -1.000000000000000000, -1.347111479062088010E-16 ) ) ;
#82 = DIRECTION ( 'NONE',  ( -3.491481338843133355E-15, 1.347111479062088010E-16, -1.000000000000000000 ) ) ;
#83 = DIRECTION ( 'NONE',  ( 4.902367131167511275E-31, 1.000000000000000000, 1.379893674072460704E-16 ) ) ;
#84 = AXIS2_PLACEMENT_3D ( 'NONE', #68, #123, #27 ) ;
#85 = CC_DESIGN_PERSON_AND_ORGANIZATION_ASSIGNMENT ( #140, #155, ( #7 ) ) ;
#86 = ORIENTED_EDGE ( 'NONE', *, *, #57, .F. ) ;
#87 = EDGE_LOOP ( 'NONE', ( #55 ) ) ;
#88 = DIRECTION ( 'NONE',  ( -3.491481338843133355E-15, 1.347111479062088010E-16, -1.000000000000000000 ) ) ;
#89 = PRODUCT_RELATED_PRODUCT_CATEGORY ( 'detail', '', ( #67 ) ) ;
#90 = AXIS2_PLACEMENT_3D ( 'NONE', #91, #44, #162 ) ;
#91 = CARTESIAN_POINT ( 'NONE',  ( 0.0000000000000000000, 0.0000000000000000000, 0.0000000000000000000 ) ) ;
#92 = CARTESIAN_POINT ( 'NONE',  ( 3.491481338843133355E-15, 10.99999999999999645, 1.000000000000000000 ) ) ;
#93 = APPROVAL_STATUS ( 'not_yet_approved' ) ;
#94 = LOCAL_TIME ( 13, 58, 41.00000000000000000, #141 ) ;
#95 = PERSON_AND_ORGANIZATION ( #22, #37 ) ;
#96 = SECURITY_CLASSIFICATION_LEVEL ( 'unclassified' ) ;
#97 = FACE_BOUND ( 'NONE', #41, .T. ) ;
#98 = EDGE_LOOP ( 'NONE', ( #25 ) ) ;
#99 = APPROVAL ( #78, 'UNSPECIFIED' ) ;
#100 = DIRECTION ( 'NONE',  ( 4.703414590486652891E-31, 1.000000000000000000, 1.347111479062088010E-16 ) ) ;
#101 = PERSON_AND_ORGANIZATION ( #22, #37 ) ;
#102 = CC_DESIGN_DATE_AND_TIME_ASSIGNMENT ( #17, #31, ( #7 ) ) ;
#103 = DATE_AND_TIME ( #105, #24 ) ;
#104 = APPROVAL_ROLE ( '' ) ;
#105 = CALENDAR_DATE ( 2021, 6, 12 ) ;
#106 = LOCAL_TIME ( 13, 58, 41.00000000000000000, #128 ) ;
#107 = ORIENTED_EDGE ( 'NONE', *, *, #111, .F. ) ;
#108 = ORIENTED_EDGE ( 'NONE', *, *, #111, .T. ) ;
#109 = FACE_OUTER_BOUND ( 'NONE', #146, .T. ) ;
#110 = LOCAL_TIME ( 13, 58, 41.00000000000000000, #16 ) ;
#111 = EDGE_CURVE ( 'NONE', #13, #13, #126, .T. ) ;
#112 = EDGE_LOOP ( 'NONE', ( #107 ) ) ;
#113 = DIRECTION ( 'NONE',  ( 4.683861624749757595E-31, 1.000000000000000000, 1.353084311261909534E-16 ) ) ;
#114 = CIRCLE ( 'NONE', #35, 10.99999999999999645 ) ;
#115 = VERTEX_POINT ( 'NONE', #92 ) ;
#116 = DATE_AND_TIME ( #6, #106 ) ;
#117 = APPROVAL ( #64, 'UNSPECIFIED' ) ;
#118 = DATE_AND_TIME ( #59, #110 ) ;
#119 = AXIS2_PLACEMENT_3D ( 'NONE', #160, #39, #23 ) ;
#120 = PRODUCT_DEFINITION_FORMATION_WITH_SPECIFIED_SOURCE ( 'ANY', '', #67, .NOT_KNOWN. ) ;
#121 = ORIENTED_EDGE ( 'NONE', *, *, #57, .T. ) ;
#122 = CC_DESIGN_SECURITY_CLASSIFICATION ( #63, ( #120 ) ) ;
#123 = DIRECTION ( 'NONE',  ( -3.491481338843133355E-15, 1.347111479062088010E-16, -1.000000000000000000 ) ) ;
#124 = APPROVAL_DATE_TIME ( #118, #159 ) ;
#125 = CC_DESIGN_DATE_AND_TIME_ASSIGNMENT ( #15, #50, ( #63 ) ) ;
#126 = CIRCLE ( 'NONE', #156, 62.50000000000000000 ) ;
#127 = LOCAL_TIME ( 13, 58, 41.00000000000000000, #34 ) ;
#128 = COORDINATED_UNIVERSAL_TIME_OFFSET ( 1, 0, .AHEAD. ) ;
#129 = EDGE_CURVE ( 'NONE', #58, #58, #74, .T. ) ;
#130 = APPROVAL_DATE_TIME ( #103, #117 ) ;
#131 = PERSON_AND_ORGANIZATION ( #22, #37 ) ;
#132 = PERSON_AND_ORGANIZATION ( #22, #37 ) ;
#133 = FACE_BOUND ( 'NONE', #98, .T. ) ;
#134 = DIRECTION ( 'NONE',  ( 4.703414590486652891E-31, 1.000000000000000000, 1.347111479062088010E-16 ) ) ;
#135 = FACE_OUTER_BOUND ( 'NONE', #54, .T. ) ;
#136 = DIRECTION ( 'NONE',  ( -3.491481338843133355E-15, 1.347111479062088010E-16, -1.000000000000000000 ) ) ;
#137 = CARTESIAN_POINT ( 'NONE',  ( 3.491481338843133355E-15, 62.50000000000000000, 1.000000000000000000 ) ) ;
#138 = DIRECTION ( 'NONE',  ( -3.491481338843133355E-15, 1.347111479062088010E-16, -1.000000000000000000 ) ) ;
#139 = CARTESIAN_POINT ( 'NONE',  ( 0.0000000000000000000, 11.00000000000000000, 0.0000000000000000000 ) ) ;
#140 = PERSON_AND_ORGANIZATION ( #22, #37 ) ;
#141 = COORDINATED_UNIVERSAL_TIME_OFFSET ( 1, 0, .AHEAD. ) ;
#142 = CALENDAR_DATE ( 2021, 6, 12 ) ;
#143 = CC_DESIGN_PERSON_AND_ORGANIZATION_ASSIGNMENT ( #62, #164, ( #63 ) ) ;
#144 = CARTESIAN_POINT ( 'NONE',  ( 0.0000000000000000000, 0.0000000000000000000, 0.0000000000000000000 ) ) ;
#145 = PLANE ( 'NONE',  #19 ) ;
#146 = EDGE_LOOP ( 'NONE', ( #108 ) ) ;
#147 = FACE_OUTER_BOUND ( 'NONE', #87, .T. ) ;
#148 = FACE_OUTER_BOUND ( 'NONE', #2, .T. ) ;
#149 = PERSON_AND_ORGANIZATION_ROLE ( 'design_owner' ) ;
#150 = MECHANICAL_CONTEXT ( 'NONE', #69, 'mechanical' ) ;
#151 = CYLINDRICAL_SURFACE ( 'NONE', #84, 10.99999999999999822 ) ;
#152 = PERSON_AND_ORGANIZATION ( #22, #37 ) ;
#153 =( GEOMETRIC_REPRESENTATION_CONTEXT ( 3 ) GLOBAL_UNCERTAINTY_ASSIGNED_CONTEXT ( ( #32 ) ) GLOBAL_UNIT_ASSIGNED_CONTEXT ( ( #47, #56, #165 ) ) REPRESENTATION_CONTEXT ( 'NONE', 'WORKASPACE' ) );
#154 = SHAPE_DEFINITION_REPRESENTATION ( #26, #158 ) ;
#155 = PERSON_AND_ORGANIZATION_ROLE ( 'creator' ) ;
#156 = AXIS2_PLACEMENT_3D ( 'NONE', #29, #138, #113 ) ;
#157 = APPLICATION_CONTEXT ( 'configuration controlled 3d designs of mechanical parts and assemblies' ) ;
#158 = ADVANCED_BREP_SHAPE_REPRESENTATION ( '30687', ( #8, #90 ), #153 ) ;
#159 = APPROVAL ( #93, 'UNSPECIFIED' ) ;
#160 = CARTESIAN_POINT ( 'NONE',  ( -1.211129257050312984E-29, 11.00000000000000000, -3.468812058584876306E-15 ) ) ;
#161 = ORIENTED_EDGE ( 'NONE', *, *, #129, .T. ) ;
#162 = DIRECTION ( 'NONE',  ( 1.000000000000000000, 0.0000000000000000000, 0.0000000000000000000 ) ) ;
#163 = APPLICATION_PROTOCOL_DEFINITION ( 'international standard', 'config_control_design', 1994, #69 ) ;
#164 = PERSON_AND_ORGANIZATION_ROLE ( 'classification_officer' ) ;
#165 =( NAMED_UNIT ( * ) SI_UNIT ( $, .STERADIAN. ) SOLID_ANGLE_UNIT ( ) );
#166 = CC_DESIGN_PERSON_AND_ORGANIZATION_ASSIGNMENT ( #101, #149, ( #67 ) ) ;
#167 = APPROVAL_DATE_TIME ( #116, #99 ) ;
#168 = EDGE_CURVE ( 'NONE', #30, #30, #169, .T. ) ;
#169 = CIRCLE ( 'NONE', #65, 62.50000000000000000 ) ;
ENDSEC;
END-ISO-10303-21;
