ISO-10303-21;
HEADER;
FILE_DESCRIPTION (( 'STEP AP203' ),
    '1' );
FILE_NAME ('306130.step',
    '2021-11-25T06:47:03',
    ( '' ),
    ( '' ),
    'SwSTEP 2.0',
    'SolidWorks 2019',
    '' );
FILE_SCHEMA (( 'CONFIG_CONTROL_DESIGN' ));
ENDSEC;

DATA;
#1 = FACE_OUTER_BOUND ( 'NONE', #155, .T. ) ;
#2 = AXIS2_PLACEMENT_3D ( 'NONE', #4, #46, #16 ) ;
#3 = LOCAL_TIME ( 7, 47, 3.000000000000000000, #120 ) ;
#4 = CARTESIAN_POINT ( 'NONE',  ( 3.491481338843133254E-12, -1.224646799147353249E-13, 1000.000000000000000 ) ) ;
#5 = VERTEX_POINT ( 'NONE', #176 ) ;
#6 = UNCERTAINTY_MEASURE_WITH_UNIT (LENGTH_MEASURE( 1.000000000000000082E-05 ), #103, 'distance_accuracy_value', 'NONE');
#7 = MECHANICAL_CONTEXT ( 'NONE', #59, 'mechanical' ) ;
#8 = DATE_AND_TIME ( #43, #160 ) ;
#9 = DIRECTION ( 'NONE',  ( 0.0000000000000000000, 1.000000000000000000, 0.0000000000000000000 ) ) ;
#10 = APPROVAL_STATUS ( 'not_yet_approved' ) ;
#11 = PERSON_AND_ORGANIZATION ( #27, #172 ) ;
#12 = AXIS2_PLACEMENT_3D ( 'NONE', #148, #101, #175 ) ;
#13 = CC_DESIGN_APPROVAL ( #25, ( #111 ) ) ;
#14 = PRODUCT_DEFINITION ( 'UNKNOWN', '', #111, #52 ) ;
#15 = LOCAL_TIME ( 7, 47, 3.000000000000000000, #22 ) ;
#16 = DIRECTION ( 'NONE',  ( -3.944304526105045890E-31, -1.000000000000000000, -1.110223024625152843E-16 ) ) ;
#17 = PERSON_AND_ORGANIZATION_ROLE ( 'design_owner' ) ;
#18 = ORIENTED_EDGE ( 'NONE', *, *, #168, .F. ) ;
#19 = PRODUCT_RELATED_PRODUCT_CATEGORY ( 'detail', '', ( #123 ) ) ;
#20 = CARTESIAN_POINT ( 'NONE',  ( 5.237222008264681100E-15, -1.836970198721023031E-16, 1.499999999999994671 ) ) ;
#21 = AXIS2_PLACEMENT_3D ( 'NONE', #23, #33, #9 ) ;
#22 = COORDINATED_UNIVERSAL_TIME_OFFSET ( 1, 0, .AHEAD. ) ;
#23 = CARTESIAN_POINT ( 'NONE',  ( 1.316288464743861212E-13, -4.616918432785521081E-15, 37.69999999999999574 ) ) ;
#24 = APPROVAL_STATUS ( 'not_yet_approved' ) ;
#25 = APPROVAL ( #77, 'UNSPECIFIED' ) ;
#26 = DIRECTION ( 'NONE',  ( -3.491481338843133355E-15, 1.224646799147353207E-16, -1.000000000000000000 ) ) ;
#27 = PERSON ( 'UNSPECIFIED', 'UNSPECIFIED', 'UNSPECIFIED', ('UNSPECIFIED'), ('UNSPECIFIED'), ('UNSPECIFIED') ) ;
#28 = ADVANCED_FACE ( 'NONE', ( #94 ), #99, .F. ) ;
#29 = EDGE_LOOP ( 'NONE', ( #143 ) ) ;
#30 = CONICAL_SURFACE ( 'NONE', #2, 1000.000000000003297, 0.7853981633974499443 ) ;
#31 = EDGE_LOOP ( 'NONE', ( #72 ) ) ;
#32 = DIRECTION ( 'NONE',  ( -3.491481338843133355E-15, 1.224646799147353207E-16, -1.000000000000000000 ) ) ;
#33 = DIRECTION ( 'NONE',  ( -3.491481338843133355E-15, 1.224646799147353207E-16, -1.000000000000000000 ) ) ;
#34 = AXIS2_PLACEMENT_3D ( 'NONE', #139, #66, #50 ) ;
#35 = APPROVAL_PERSON_ORGANIZATION ( #38, #25, #78 ) ;
#36 = CC_DESIGN_PERSON_AND_ORGANIZATION_ASSIGNMENT ( #57, #183, ( #111 ) ) ;
#37 = DIRECTION ( 'NONE',  ( 0.0000000000000000000, 0.0000000000000000000, 1.000000000000000000 ) ) ;
#38 = PERSON_AND_ORGANIZATION ( #27, #172 ) ;
#39 = CARTESIAN_POINT ( 'NONE',  ( 0.0000000000000000000, 0.0000000000000000000, 0.0000000000000000000 ) ) ;
#40 = APPROVAL_DATE_TIME ( #105, #130 ) ;
#41 = DATE_AND_TIME ( #163, #147 ) ;
#42 = CALENDAR_DATE ( 2021, 25, 11 ) ;
#43 = CALENDAR_DATE ( 2021, 25, 11 ) ;
#44 = PLANE ( 'NONE',  #34 ) ;
#45 = APPLICATION_CONTEXT ( 'configuration controlled 3d designs of mechanical parts and assemblies' ) ;
#46 = DIRECTION ( 'NONE',  ( 3.491481338843133355E-15, -1.224646799147353207E-16, 1.000000000000000000 ) ) ;
#47 = DIRECTION ( 'NONE',  ( -3.491481338843133355E-15, 1.224646799147353207E-16, -1.000000000000000000 ) ) ;
#48 =( NAMED_UNIT ( * ) PLANE_ANGLE_UNIT ( ) SI_UNIT ( $, .RADIAN. ) );
#49 = ORIENTED_EDGE ( 'NONE', *, *, #146, .F. ) ;
#50 = DIRECTION ( 'NONE',  ( -4.275831445896958607E-31, -1.000000000000000000, -1.224646799147353207E-16 ) ) ;
#51 = VERTEX_POINT ( 'NONE', #158 ) ;
#52 = DESIGN_CONTEXT ( 'detailed design', #45, 'design' ) ;
#53 = FACE_OUTER_BOUND ( 'NONE', #128, .T. ) ;
#54 = SHAPE_DEFINITION_REPRESENTATION ( #167, #98 ) ;
#55 = PERSON_AND_ORGANIZATION_ROLE ( 'creator' ) ;
#56 = CC_DESIGN_PERSON_AND_ORGANIZATION_ASSIGNMENT ( #150, #55, ( #14 ) ) ;
#57 = PERSON_AND_ORGANIZATION ( #27, #172 ) ;
#58 = AXIS2_PLACEMENT_3D ( 'NONE', #159, #32, #144 ) ;
#59 = APPLICATION_CONTEXT ( 'configuration controlled 3d designs of mechanical parts and assemblies' ) ;
#60 = AXIS2_PLACEMENT_3D ( 'NONE', #39, #26, #140 ) ;
#61 = LOCAL_TIME ( 7, 47, 3.000000000000000000, #135 ) ;
#62 = ORIENTED_EDGE ( 'NONE', *, *, #168, .T. ) ;
#63 = DIRECTION ( 'NONE',  ( 1.000000000000000000, 0.0000000000000000000, 0.0000000000000000000 ) ) ;
#64 = CARTESIAN_POINT ( 'NONE',  ( 5.237222008264681889E-15, 1.499999999999999334, 1.499999999999994893 ) ) ;
#65 = EDGE_CURVE ( 'NONE', #51, #51, #121, .T. ) ;
#66 = DIRECTION ( 'NONE',  ( 3.491481338843133355E-15, -1.224646799147353207E-16, 1.000000000000000000 ) ) ;
#67 = PERSON_AND_ORGANIZATION_ROLE ( 'design_supplier' ) ;
#68 = DATE_TIME_ROLE ( 'classification_date' ) ;
#69 = PERSON_AND_ORGANIZATION_ROLE ( 'classification_officer' ) ;
#70 = CC_DESIGN_APPROVAL ( #130, ( #14 ) ) ;
#71 = DIRECTION ( 'NONE',  ( 5.135813185032630401E-31, 1.000000000000000000, 1.445602896647339656E-16 ) ) ;
#72 = ORIENTED_EDGE ( 'NONE', *, *, #104, .F. ) ;
#73 = CARTESIAN_POINT ( 'NONE',  ( 1.316288464743861212E-13, 1.499999999999994449, 37.69999999999999574 ) ) ;
#74 = CC_DESIGN_PERSON_AND_ORGANIZATION_ASSIGNMENT ( #134, #67, ( #111 ) ) ;
#75 = CYLINDRICAL_SURFACE ( 'NONE', #60, 1.499999999999999112 ) ;
#76 = AXIS2_PLACEMENT_3D ( 'NONE', #141, #47, #142 ) ;
#77 = APPROVAL_STATUS ( 'not_yet_approved' ) ;
#78 = APPROVAL_ROLE ( '' ) ;
#79 = CC_DESIGN_PERSON_AND_ORGANIZATION_ASSIGNMENT ( #157, #17, ( #123 ) ) ;
#80 = APPROVAL_PERSON_ORGANIZATION ( #119, #174, #132 ) ;
#81 = ADVANCED_FACE ( 'NONE', ( #126, #1 ), #145, .T. ) ;
#82 = EDGE_LOOP ( 'NONE', ( #49 ) ) ;
#83 = ADVANCED_FACE ( 'NONE', ( #118 ), #161, .T. ) ;
#84 =( NAMED_UNIT ( * ) SI_UNIT ( $, .STERADIAN. ) SOLID_ANGLE_UNIT ( ) );
#85 = CIRCLE ( 'NONE', #12, 1.499999999999999556 ) ;
#86 = CARTESIAN_POINT ( 'NONE',  ( 5.237222008264681889E-15, -4.336808689942001959E-16, 1.499999999999994893 ) ) ;
#87 = SECURITY_CLASSIFICATION ( '', '', #152 ) ;
#88 = APPROVAL_PERSON_ORGANIZATION ( #106, #130, #182 ) ;
#89 = APPROVAL_DATE_TIME ( #153, #25 ) ;
#90 = CC_DESIGN_PERSON_AND_ORGANIZATION_ASSIGNMENT ( #11, #69, ( #87 ) ) ;
#91 = CIRCLE ( 'NONE', #76, 1.499999999999998890 ) ;
#92 = DATE_TIME_ROLE ( 'creation_date' ) ;
#93 = DIRECTION ( 'NONE',  ( -3.491481338843133355E-15, 1.224646799147353207E-16, -1.000000000000000000 ) ) ;
#94 = FACE_OUTER_BOUND ( 'NONE', #82, .T. ) ;
#95 = ORIENTED_EDGE ( 'NONE', *, *, #65, .F. ) ;
#96 = ORIENTED_EDGE ( 'NONE', *, *, #104, .T. ) ;
#97 = MANIFOLD_SOLID_BREP ( 'Corps-Déplacer/Copier1[1]', #156 ) ;
#98 = ADVANCED_BREP_SHAPE_REPRESENTATION ( '306130', ( #97, #166, #151 ), #133 ) ;
#99 = PLANE ( 'NONE',  #58 ) ;
#100 = ADVANCED_FACE ( 'NONE', ( #165 ), #44, .F. ) ;
#101 = DIRECTION ( 'NONE',  ( -3.491481338843133355E-15, 1.224646799147353207E-16, -1.000000000000000000 ) ) ;
#102 = CIRCLE ( 'NONE', #110, 1.200000000000000844 ) ;
#103 =( LENGTH_UNIT ( ) NAMED_UNIT ( * ) SI_UNIT ( .MILLI., .METRE. ) );
#104 = EDGE_CURVE ( 'NONE', #113, #113, #85, .T. ) ;
#105 = DATE_AND_TIME ( #169, #15 ) ;
#106 = PERSON_AND_ORGANIZATION ( #27, #172 ) ;
#107 = AXIS2_PLACEMENT_3D ( 'NONE', #20, #115, #71 ) ;
#108 = FACE_OUTER_BOUND ( 'NONE', #29, .T. ) ;
#109 = ADVANCED_FACE ( 'NONE', ( #53, #177 ), #75, .T. ) ;
#110 = AXIS2_PLACEMENT_3D ( 'NONE', #124, #93, #154 ) ;
#111 = PRODUCT_DEFINITION_FORMATION_WITH_SPECIFIED_SOURCE ( 'ANY', '', #123, .NOT_KNOWN. ) ;
#112 = EDGE_LOOP ( 'NONE', ( #95 ) ) ;
#113 = VERTEX_POINT ( 'NONE', #64 ) ;
#114 = EDGE_LOOP ( 'NONE', ( #171 ) ) ;
#115 = DIRECTION ( 'NONE',  ( -3.491481338843133355E-15, 1.224646799147353207E-16, -1.000000000000000000 ) ) ;
#116 = DIRECTION ( 'NONE',  ( -4.275831445896958607E-31, -1.000000000000000000, -1.224646799147353207E-16 ) ) ;
#117 = CALENDAR_DATE ( 2021, 25, 11 ) ;
#118 = FACE_OUTER_BOUND ( 'NONE', #112, .T. ) ;
#119 = PERSON_AND_ORGANIZATION ( #27, #172 ) ;
#120 = COORDINATED_UNIVERSAL_TIME_OFFSET ( 1, 0, .AHEAD. ) ;
#121 = CIRCLE ( 'NONE', #107, 1.499999999999999556 ) ;
#122 = COORDINATED_UNIVERSAL_TIME_OFFSET ( 1, 0, .AHEAD. ) ;
#123 = PRODUCT ( '306130', '306130', '', ( #7 ) ) ;
#124 = CARTESIAN_POINT ( 'NONE',  ( 1.326762908760390423E-13, -4.653657836759941941E-15, 38.00000000000000000 ) ) ;
#125 = ADVANCED_FACE ( 'NONE', ( #108 ), #30, .T. ) ;
#126 = FACE_BOUND ( 'NONE', #114, .T. ) ;
#127 = CLOSED_SHELL ( 'NONE', ( #125, #83 ) ) ;
#128 = EDGE_LOOP ( 'NONE', ( #62 ) ) ;
#129 = APPLICATION_PROTOCOL_DEFINITION ( 'international standard', 'config_control_design', 1994, #45 ) ;
#130 = APPROVAL ( #10, 'UNSPECIFIED' ) ;
#131 = APPLICATION_PROTOCOL_DEFINITION ( 'international standard', 'config_control_design', 1994, #59 ) ;
#132 = APPROVAL_ROLE ( '' ) ;
#133 =( GEOMETRIC_REPRESENTATION_CONTEXT ( 3 ) GLOBAL_UNCERTAINTY_ASSIGNED_CONTEXT ( ( #6 ) ) GLOBAL_UNIT_ASSIGNED_CONTEXT ( ( #103, #48, #84 ) ) REPRESENTATION_CONTEXT ( 'NONE', 'WORKASPACE' ) );
#134 = PERSON_AND_ORGANIZATION ( #27, #172 ) ;
#135 = COORDINATED_UNIVERSAL_TIME_OFFSET ( 1, 0, .AHEAD. ) ;
#136 = AXIS2_PLACEMENT_3D ( 'NONE', #86, #179, #116 ) ;
#137 = CC_DESIGN_SECURITY_CLASSIFICATION ( #87, ( #111 ) ) ;
#138 = DATE_AND_TIME ( #117, #3 ) ;
#139 = CARTESIAN_POINT ( 'NONE',  ( 5.237222008264681889E-15, -4.336808689942001959E-16, 1.499999999999994893 ) ) ;
#140 = DIRECTION ( 'NONE',  ( 4.275831445896958607E-31, 1.000000000000000000, 1.224646799147353454E-16 ) ) ;
#141 = CARTESIAN_POINT ( 'NONE',  ( 1.316288464743861212E-13, -4.616918432785521081E-15, 37.69999999999999574 ) ) ;
#142 = DIRECTION ( 'NONE',  ( 0.0000000000000000000, 1.000000000000000000, 0.0000000000000000000 ) ) ;
#143 = ORIENTED_EDGE ( 'NONE', *, *, #65, .T. ) ;
#144 = DIRECTION ( 'NONE',  ( 4.275831445896958607E-31, 1.000000000000000000, 1.224646799147353207E-16 ) ) ;
#145 = CONICAL_SURFACE ( 'NONE', #21, 1.499999999999998890, 0.7853981633974425058 ) ;
#146 = EDGE_CURVE ( 'NONE', #5, #5, #102, .T. ) ;
#147 = LOCAL_TIME ( 7, 47, 3.000000000000000000, #180 ) ;
#148 = CARTESIAN_POINT ( 'NONE',  ( 5.237222008264681100E-15, -1.836970198721023031E-16, 1.499999999999994671 ) ) ;
#149 = VERTEX_POINT ( 'NONE', #73 ) ;
#150 = PERSON_AND_ORGANIZATION ( #27, #172 ) ;
#151 = AXIS2_PLACEMENT_3D ( 'NONE', #162, #37, #63 ) ;
#152 = SECURITY_CLASSIFICATION_LEVEL ( 'unclassified' ) ;
#153 = DATE_AND_TIME ( #42, #61 ) ;
#154 = DIRECTION ( 'NONE',  ( 0.0000000000000000000, 1.000000000000000000, 0.0000000000000000000 ) ) ;
#155 = EDGE_LOOP ( 'NONE', ( #18 ) ) ;
#156 = CLOSED_SHELL ( 'NONE', ( #100, #109, #81, #28 ) ) ;
#157 = PERSON_AND_ORGANIZATION ( #27, #172 ) ;
#158 = CARTESIAN_POINT ( 'NONE',  ( 5.237222008264681889E-15, 1.499999999999999334, 1.499999999999994893 ) ) ;
#159 = CARTESIAN_POINT ( 'NONE',  ( 1.326762908760390423E-13, 8.998558695971082698E-33, 38.00000000000000000 ) ) ;
#160 = LOCAL_TIME ( 7, 47, 3.000000000000000000, #122 ) ;
#161 = PLANE ( 'NONE',  #136 ) ;
#162 = CARTESIAN_POINT ( 'NONE',  ( 0.0000000000000000000, 0.0000000000000000000, 0.0000000000000000000 ) ) ;
#163 = CALENDAR_DATE ( 2021, 25, 11 ) ;
#164 = CC_DESIGN_DATE_AND_TIME_ASSIGNMENT ( #138, #68, ( #87 ) ) ;
#165 = FACE_OUTER_BOUND ( 'NONE', #173, .T. ) ;
#166 = MANIFOLD_SOLID_BREP ( 'Corps-Déplacer/Copier1[2]', #127 ) ;
#167 = PRODUCT_DEFINITION_SHAPE ( 'NONE', 'NONE',  #14 ) ;
#168 = EDGE_CURVE ( 'NONE', #149, #149, #91, .T. ) ;
#169 = CALENDAR_DATE ( 2021, 25, 11 ) ;
#170 = CC_DESIGN_APPROVAL ( #174, ( #87 ) ) ;
#171 = ORIENTED_EDGE ( 'NONE', *, *, #146, .T. ) ;
#172 = ORGANIZATION ( 'UNSPECIFIED', 'UNSPECIFIED', '' ) ;
#173 = EDGE_LOOP ( 'NONE', ( #96 ) ) ;
#174 = APPROVAL ( #24, 'UNSPECIFIED' ) ;
#175 = DIRECTION ( 'NONE',  ( 5.135813185032630401E-31, 1.000000000000000000, 1.445602896647339656E-16 ) ) ;
#176 = CARTESIAN_POINT ( 'NONE',  ( 1.326762908760390423E-13, 1.199999999999996181, 38.00000000000000000 ) ) ;
#177 = FACE_OUTER_BOUND ( 'NONE', #31, .T. ) ;
#178 = APPROVAL_DATE_TIME ( #41, #174 ) ;
#179 = DIRECTION ( 'NONE',  ( 3.491481338843133355E-15, -1.224646799147353207E-16, 1.000000000000000000 ) ) ;
#180 = COORDINATED_UNIVERSAL_TIME_OFFSET ( 1, 0, .AHEAD. ) ;
#181 = CC_DESIGN_DATE_AND_TIME_ASSIGNMENT ( #8, #92, ( #14 ) ) ;
#182 = APPROVAL_ROLE ( '' ) ;
#183 = PERSON_AND_ORGANIZATION_ROLE ( 'creator' ) ;
ENDSEC;
END-ISO-10303-21;
