ISO-10303-21;
HEADER;
FILE_DESCRIPTION (( 'STEP AP203' ),
    '1' );
FILE_NAME ('305804.step',
    '2021-12-17T12:38:06',
    ( '' ),
    ( '' ),
    'SwSTEP 2.0',
    'SolidWorks 2019',
    '' );
FILE_SCHEMA (( 'CONFIG_CONTROL_DESIGN' ));
ENDSEC;

DATA;
#1 = PERSON_AND_ORGANIZATION ( #283, #80 ) ;
#2 = CC_DESIGN_DATE_AND_TIME_ASSIGNMENT ( #102, #222, ( #57 ) ) ;
#3 = DATE_AND_TIME ( #24, #160 ) ;
#4 = ORIENTED_EDGE ( 'NONE', *, *, #217, .T. ) ;
#5 = COORDINATED_UNIVERSAL_TIME_OFFSET ( 1, 0, .AHEAD. ) ;
#6 = LOCAL_TIME ( 13, 38, 6.000000000000000000, #31 ) ;
#7 = CC_DESIGN_PERSON_AND_ORGANIZATION_ASSIGNMENT ( #61, #38, ( #265 ) ) ;
#8 = DIRECTION ( 'NONE',  ( 4.275831445896958607E-31, 1.000000000000000000, 1.224646799147353207E-16 ) ) ;
#9 = EDGE_CURVE ( 'NONE', #295, #295, #45, .T. ) ;
#10 = AXIS2_PLACEMENT_3D ( 'NONE', #52, #79, #181 ) ;
#11 = DIRECTION ( 'NONE',  ( -3.491481338843133355E-15, 1.224646799147353207E-16, -1.000000000000000000 ) ) ;
#12 = CARTESIAN_POINT ( 'NONE',  ( 1.047444401652940007E-13, 4.499279347985507822E-33, 30.00000000000000000 ) ) ;
#13 = CARTESIAN_POINT ( 'NONE',  ( 0.0000000000000000000, 0.0000000000000000000, 0.0000000000000000000 ) ) ;
#14 = DIRECTION ( 'NONE',  ( 0.0000000000000000000, 1.000000000000000000, 0.0000000000000000000 ) ) ;
#15 = DIRECTION ( 'NONE',  ( -4.275831445896958607E-31, -1.000000000000000000, -1.224646799147353207E-16 ) ) ;
#16 = APPLICATION_PROTOCOL_DEFINITION ( 'international standard', 'config_control_design', 1994, #122 ) ;
#17 = CARTESIAN_POINT ( 'NONE',  ( 7.047396692567890451E-16, -2.471894008385152386E-17, 0.2018454635333372105 ) ) ;
#18 = CARTESIAN_POINT ( 'NONE',  ( 2.374207310413330366E-14, 0.7219999999999991980, 6.799999999999999822 ) ) ;
#19 = DIRECTION ( 'NONE',  ( 4.275831445896958607E-31, 1.000000000000000000, 1.224646799147352961E-16 ) ) ;
#20 = VERTEX_POINT ( 'NONE', #139 ) ;
#21 = CARTESIAN_POINT ( 'NONE',  ( 1.955229549752154679E-14, 5.414132815409295126E-33, 5.599999999999999645 ) ) ;
#22 = DATE_AND_TIME ( #163, #71 ) ;
#23 =( GEOMETRIC_REPRESENTATION_CONTEXT ( 3 ) GLOBAL_UNCERTAINTY_ASSIGNED_CONTEXT ( ( #221 ) ) GLOBAL_UNIT_ASSIGNED_CONTEXT ( ( #255, #204, #302 ) ) REPRESENTATION_CONTEXT ( 'NONE', 'WORKASPACE' ) );
#24 = CALENDAR_DATE ( 2021, 17, 12 ) ;
#25 = DIRECTION ( 'NONE',  ( -3.491481338843133355E-15, 1.224646799147353207E-16, -1.000000000000000000 ) ) ;
#26 = DESIGN_CONTEXT ( 'detailed design', #122, 'design' ) ;
#27 = CC_DESIGN_PERSON_AND_ORGANIZATION_ASSIGNMENT ( #58, #228, ( #51 ) ) ;
#28 = AXIS2_PLACEMENT_3D ( 'NONE', #298, #209, #184 ) ;
#29 = ORIENTED_EDGE ( 'NONE', *, *, #247, .F. ) ;
#30 = AXIS2_PLACEMENT_3D ( 'NONE', #17, #43, #216 ) ;
#31 = COORDINATED_UNIVERSAL_TIME_OFFSET ( 1, 0, .AHEAD. ) ;
#32 = CC_DESIGN_APPROVAL ( #196, ( #120 ) ) ;
#33 = ORIENTED_EDGE ( 'NONE', *, *, #182, .T. ) ;
#34 = DIRECTION ( 'NONE',  ( 0.0000000000000000000, -1.000000000000000000, 0.0000000000000000000 ) ) ;
#35 = MANIFOLD_SOLID_BREP ( 'Corps-Déplacer/Copier1[2]', #281 ) ;
#36 = VERTEX_POINT ( 'NONE', #273 ) ;
#37 = ORIENTED_EDGE ( 'NONE', *, *, #247, .T. ) ;
#38 = PERSON_AND_ORGANIZATION_ROLE ( 'creator' ) ;
#39 = DIRECTION ( 'NONE',  ( -3.491481338843133355E-15, 1.224646799147353207E-16, -1.000000000000000000 ) ) ;
#40 = EDGE_LOOP ( 'NONE', ( #105 ) ) ;
#41 = CARTESIAN_POINT ( 'NONE',  ( 0.0000000000000000000, 0.0000000000000000000, 0.0000000000000000000 ) ) ;
#42 = DIRECTION ( 'NONE',  ( 5.334985995532514703E-31, 1.000000000000000000, 1.501665058844190491E-16 ) ) ;
#43 = DIRECTION ( 'NONE',  ( -3.491481338843133355E-15, 1.224646799147353207E-16, -1.000000000000000000 ) ) ;
#44 = DIRECTION ( 'NONE',  ( -3.491481338843133355E-15, 1.224646799147353207E-16, -1.000000000000000000 ) ) ;
#45 = CIRCLE ( 'NONE', #194, 0.7499999999999984457 ) ;
#46 = CC_DESIGN_APPROVAL ( #290, ( #57 ) ) ;
#47 = FACE_OUTER_BOUND ( 'NONE', #40, .T. ) ;
#48 = CONICAL_SURFACE ( 'NONE', #246, 0.7499999999999972244, 0.2617993877991432461 ) ;
#49 = APPROVAL_DATE_TIME ( #3, #196 ) ;
#50 = PRODUCT_RELATED_PRODUCT_CATEGORY ( 'detail', '', ( #51 ) ) ;
#51 = PRODUCT ( '305804', '305804', '', ( #85 ) ) ;
#52 = CARTESIAN_POINT ( 'NONE',  ( 2.374207310413330366E-14, -8.673617379884035472E-16, 6.799999999999999822 ) ) ;
#53 = AXIS2_PLACEMENT_3D ( 'NONE', #21, #231, #89 ) ;
#54 = AXIS2_PLACEMENT_3D ( 'NONE', #41, #234, #206 ) ;
#55 = ADVANCED_FACE ( 'NONE', ( #278 ), #192, .T. ) ;
#56 = CC_DESIGN_PERSON_AND_ORGANIZATION_ASSIGNMENT ( #241, #155, ( #57 ) ) ;
#57 = SECURITY_CLASSIFICATION ( '', '', #157 ) ;
#58 = PERSON_AND_ORGANIZATION ( #283, #80 ) ;
#59 = FACE_BOUND ( 'NONE', #134, .T. ) ;
#60 = CC_DESIGN_DATE_AND_TIME_ASSIGNMENT ( #287, #179, ( #265 ) ) ;
#61 = PERSON_AND_ORGANIZATION ( #283, #80 ) ;
#62 = DIRECTION ( 'NONE',  ( -4.275831445896958607E-31, -1.000000000000000000, -1.224646799147353207E-16 ) ) ;
#63 = FACE_OUTER_BOUND ( 'NONE', #131, .T. ) ;
#64 = DIRECTION ( 'NONE',  ( -3.491481338843133355E-15, 1.224646799147353207E-16, -1.000000000000000000 ) ) ;
#65 = CARTESIAN_POINT ( 'NONE',  ( 2.094888803305880013E-15, 0.7219999999999991980, 0.6000000000000000888 ) ) ;
#66 = ORIENTED_EDGE ( 'NONE', *, *, #296, .F. ) ;
#67 = VERTEX_POINT ( 'NONE', #146 ) ;
#68 = CARTESIAN_POINT ( 'NONE',  ( 2.094888803305879619E-15, -7.347880794884117764E-17, 0.5999999999999999778 ) ) ;
#69 = PERSON_AND_ORGANIZATION ( #283, #80 ) ;
#70 = ADVANCED_FACE ( 'NONE', ( #172, #297 ), #126, .T. ) ;
#71 = LOCAL_TIME ( 13, 38, 6.000000000000000000, #186 ) ;
#72 = DIRECTION ( 'NONE',  ( -3.491481338843133355E-15, 1.224646799147353207E-16, -1.000000000000000000 ) ) ;
#73 = PERSON_AND_ORGANIZATION_ROLE ( 'creator' ) ;
#74 = DIRECTION ( 'NONE',  ( -3.491481338843133355E-15, 1.224646799147353207E-16, -1.000000000000000000 ) ) ;
#75 = APPROVAL_ROLE ( '' ) ;
#76 = CARTESIAN_POINT ( 'NONE',  ( 2.456658614367850475E-14, -8.616798478092993046E-16, 7.036149920199313179 ) ) ;
#77 = CALENDAR_DATE ( 2021, 17, 12 ) ;
#78 = AXIS2_PLACEMENT_3D ( 'NONE', #293, #274, #42 ) ;
#79 = DIRECTION ( 'NONE',  ( -3.491481338843133355E-15, 1.224646799147353207E-16, -1.000000000000000000 ) ) ;
#80 = ORGANIZATION ( 'UNSPECIFIED', 'UNSPECIFIED', '' ) ;
#81 = CARTESIAN_POINT ( 'NONE',  ( 1.047444401652940007E-13, -3.673940397442059178E-15, 30.00000000000000000 ) ) ;
#82 = DIRECTION ( 'NONE',  ( 4.275831445896958607E-31, 1.000000000000000000, 1.224646799147353207E-16 ) ) ;
#83 = AXIS2_PLACEMENT_3D ( 'NONE', #199, #303, #128 ) ;
#84 = ADVANCED_FACE ( 'NONE', ( #63, #188 ), #276, .T. ) ;
#85 = MECHANICAL_CONTEXT ( 'NONE', #113, 'mechanical' ) ;
#86 = CARTESIAN_POINT ( 'NONE',  ( 1.047444401652940007E-13, -3.673940397442059178E-15, 30.00000000000000000 ) ) ;
#87 = FACE_OUTER_BOUND ( 'NONE', #299, .T. ) ;
#88 = APPROVAL_ROLE ( '' ) ;
#89 = DIRECTION ( 'NONE',  ( -4.275831445896958607E-31, -1.000000000000000000, -1.224646799147353207E-16 ) ) ;
#90 = DIRECTION ( 'NONE',  ( -3.491481338843133355E-15, 1.224646799147353207E-16, -1.000000000000000000 ) ) ;
#91 = ORIENTED_EDGE ( 'NONE', *, *, #115, .T. ) ;
#92 = CARTESIAN_POINT ( 'NONE',  ( 1.047444401652940007E-13, 0.5999999999999949818, 30.00000000000000000 ) ) ;
#93 = CIRCLE ( 'NONE', #137, 0.7220000000000000862 ) ;
#94 = VERTEX_POINT ( 'NONE', #252 ) ;
#95 = CARTESIAN_POINT ( 'NONE',  ( 1.042207179644675275E-13, -3.655570695454848748E-15, 29.84999999999999787 ) ) ;
#96 = DIRECTION ( 'NONE',  ( -3.491481338843133355E-15, 1.224646799147353207E-16, -1.000000000000000000 ) ) ;
#97 = CIRCLE ( 'NONE', #132, 0.2950000000000000400 ) ;
#98 = APPROVAL_STATUS ( 'not_yet_approved' ) ;
#99 = EDGE_LOOP ( 'NONE', ( #147 ) ) ;
#100 = CALENDAR_DATE ( 2021, 17, 12 ) ;
#101 = EDGE_LOOP ( 'NONE', ( #37 ) ) ;
#102 = DATE_AND_TIME ( #178, #6 ) ;
#103 = AXIS2_PLACEMENT_3D ( 'NONE', #262, #96, #8 ) ;
#104 = CYLINDRICAL_SURFACE ( 'NONE', #103, 0.7499999999999978906 ) ;
#105 = ORIENTED_EDGE ( 'NONE', *, *, #202, .T. ) ;
#106 = FACE_OUTER_BOUND ( 'NONE', #198, .T. ) ;
#107 = PLANE ( 'NONE',  #226 ) ;
#108 = AXIS2_PLACEMENT_3D ( 'NONE', #12, #294, #82 ) ;
#109 = DIRECTION ( 'NONE',  ( 3.491481338843133355E-15, -1.224646799147353207E-16, 1.000000000000000000 ) ) ;
#110 = CC_DESIGN_SECURITY_CLASSIFICATION ( #57, ( #120 ) ) ;
#111 = PERSON_AND_ORGANIZATION ( #283, #80 ) ;
#112 = ORIENTED_EDGE ( 'NONE', *, *, #239, .F. ) ;
#113 = APPLICATION_CONTEXT ( 'configuration controlled 3d designs of mechanical parts and assemblies' ) ;
#114 = DIRECTION ( 'NONE',  ( 4.275831445896958607E-31, 1.000000000000000000, 1.224646799147353207E-16 ) ) ;
#115 = EDGE_CURVE ( 'NONE', #36, #36, #165, .T. ) ;
#116 = ORIENTED_EDGE ( 'NONE', *, *, #202, .F. ) ;
#117 = APPROVAL ( #236, 'UNSPECIFIED' ) ;
#118 = CARTESIAN_POINT ( 'NONE',  ( 2.464573497024593264E-14, 0.7560741737109291094, 7.058819045102513456 ) ) ;
#119 = EDGE_LOOP ( 'NONE', ( #91 ) ) ;
#120 = PRODUCT_DEFINITION_FORMATION_WITH_SPECIFIED_SOURCE ( 'ANY', '', #51, .NOT_KNOWN. ) ;
#121 = EDGE_LOOP ( 'NONE', ( #207 ) ) ;
#122 = APPLICATION_CONTEXT ( 'configuration controlled 3d designs of mechanical parts and assemblies' ) ;
#123 = APPROVAL_STATUS ( 'not_yet_approved' ) ;
#124 = ADVANCED_FACE ( 'NONE', ( #87, #237 ), #104, .T. ) ;
#125 = DIRECTION ( 'NONE',  ( 0.0000000000000000000, 1.000000000000000000, 0.0000000000000000000 ) ) ;
#126 = CONICAL_SURFACE ( 'NONE', #291, 0.7219999999999993090, 0.1919862177193695507 ) ;
#127 = CIRCLE ( 'NONE', #156, 0.7219999999999998641 ) ;
#128 = DIRECTION ( 'NONE',  ( 0.0000000000000000000, 1.000000000000000000, 0.0000000000000000000 ) ) ;
#129 = ORIENTED_EDGE ( 'NONE', *, *, #285, .T. ) ;
#130 = EDGE_LOOP ( 'NONE', ( #249 ) ) ;
#131 = EDGE_LOOP ( 'NONE', ( #29 ) ) ;
#132 = AXIS2_PLACEMENT_3D ( 'NONE', #140, #39, #19 ) ;
#133 = ADVANCED_FACE ( 'NONE', ( #279, #136 ), #48, .F. ) ;
#134 = EDGE_LOOP ( 'NONE', ( #112 ) ) ;
#135 = DIRECTION ( 'NONE',  ( 3.491481338843133355E-15, -1.224646799147353207E-16, 1.000000000000000000 ) ) ;
#136 = FACE_BOUND ( 'NONE', #220, .T. ) ;
#137 = AXIS2_PLACEMENT_3D ( 'NONE', #158, #258, #193 ) ;
#138 = CC_DESIGN_PERSON_AND_ORGANIZATION_ASSIGNMENT ( #1, #289, ( #120 ) ) ;
#139 = CARTESIAN_POINT ( 'NONE',  ( 2.456658614367850475E-14, 0.7499999999999963363, 7.036149920199313179 ) ) ;
#140 = CARTESIAN_POINT ( 'NONE',  ( -1.261370276539602736E-31, 4.424291358852480080E-33, -3.612708057484691973E-17 ) ) ;
#141 = APPLICATION_PROTOCOL_DEFINITION ( 'international standard', 'config_control_design', 1994, #113 ) ;
#142 = ORIENTED_EDGE ( 'NONE', *, *, #9, .T. ) ;
#143 = COORDINATED_UNIVERSAL_TIME_OFFSET ( 1, 0, .AHEAD. ) ;
#144 = CC_DESIGN_PERSON_AND_ORGANIZATION_ASSIGNMENT ( #282, #73, ( #120 ) ) ;
#145 = DIRECTION ( 'NONE',  ( 0.0000000000000000000, 1.000000000000000000, 0.0000000000000000000 ) ) ;
#146 = CARTESIAN_POINT ( 'NONE',  ( 2.138211768073756517E-47, 0.2950000000000000400, 0.0000000000000000000 ) ) ;
#147 = ORIENTED_EDGE ( 'NONE', *, *, #115, .F. ) ;
#148 = CLOSED_SHELL ( 'NONE', ( #229, #280, #173, #133, #124, #251, #259 ) ) ;
#149 = APPROVAL_PERSON_ORGANIZATION ( #111, #117, #88 ) ;
#150 = MANIFOLD_SOLID_BREP ( 'Corps-Déplacer/Copier1[1]', #148 ) ;
#151 = ORIENTED_EDGE ( 'NONE', *, *, #182, .F. ) ;
#152 = COORDINATED_UNIVERSAL_TIME_OFFSET ( 1, 0, .AHEAD. ) ;
#153 = FACE_OUTER_BOUND ( 'NONE', #195, .T. ) ;
#154 = ORIENTED_EDGE ( 'NONE', *, *, #285, .F. ) ;
#155 = PERSON_AND_ORGANIZATION_ROLE ( 'classification_officer' ) ;
#156 = AXIS2_PLACEMENT_3D ( 'NONE', #171, #90, #14 ) ;
#157 = SECURITY_CLASSIFICATION_LEVEL ( 'unclassified' ) ;
#158 = CARTESIAN_POINT ( 'NONE',  ( 2.374207310413330366E-14, -8.327598234202001119E-16, 6.799999999999999822 ) ) ;
#159 = FACE_OUTER_BOUND ( 'NONE', #119, .T. ) ;
#160 = LOCAL_TIME ( 13, 38, 6.000000000000000000, #152 ) ;
#161 = DIRECTION ( 'NONE',  ( 0.0000000000000000000, 1.000000000000000000, 0.0000000000000000000 ) ) ;
#162 = ORIENTED_EDGE ( 'NONE', *, *, #9, .F. ) ;
#163 = CALENDAR_DATE ( 2021, 17, 12 ) ;
#164 = AXIS2_PLACEMENT_3D ( 'NONE', #170, #44, #254 ) ;
#165 = CIRCLE ( 'NONE', #30, 0.6446065981170271408 ) ;
#166 = AXIS2_PLACEMENT_3D ( 'NONE', #284, #74, #224 ) ;
#167 = VERTEX_POINT ( 'NONE', #118 ) ;
#168 = FACE_OUTER_BOUND ( 'NONE', #263, .T. ) ;
#169 = EDGE_CURVE ( 'NONE', #300, #300, #292, .T. ) ;
#170 = CARTESIAN_POINT ( 'NONE',  ( 0.0000000000000000000, 0.0000000000000000000, 0.0000000000000000000 ) ) ;
#171 = CARTESIAN_POINT ( 'NONE',  ( 1.955229549752154679E-14, -6.858022075225177566E-16, 5.599999999999999645 ) ) ;
#172 = FACE_BOUND ( 'NONE', #99, .T. ) ;
#173 = ADVANCED_FACE ( 'NONE', ( #177, #47 ), #189, .F. ) ;
#174 = DIRECTION ( 'NONE',  ( 3.491481338843133355E-15, -1.224646799147353207E-16, 1.000000000000000000 ) ) ;
#175 = APPROVAL_ROLE ( '' ) ;
#176 = AXIS2_PLACEMENT_3D ( 'NONE', #13, #214, #114 ) ;
#177 = FACE_OUTER_BOUND ( 'NONE', #187, .T. ) ;
#178 = CALENDAR_DATE ( 2021, 17, 12 ) ;
#179 = DATE_TIME_ROLE ( 'creation_date' ) ;
#180 = AXIS2_PLACEMENT_3D ( 'NONE', #232, #64, #248 ) ;
#181 = DIRECTION ( 'NONE',  ( 4.275831445896958607E-31, 1.000000000000000000, 1.224646799147353207E-16 ) ) ;
#182 = EDGE_CURVE ( 'NONE', #20, #20, #264, .T. ) ;
#183 = FACE_OUTER_BOUND ( 'NONE', #223, .T. ) ;
#184 = DIRECTION ( 'NONE',  ( -4.481640313672960725E-31, -1.000000000000000000, -1.261469602916633671E-16 ) ) ;
#185 = LOCAL_TIME ( 13, 38, 6.000000000000000000, #5 ) ;
#186 = COORDINATED_UNIVERSAL_TIME_OFFSET ( 1, 0, .AHEAD. ) ;
#187 = EDGE_LOOP ( 'NONE', ( #213 ) ) ;
#188 = FACE_OUTER_BOUND ( 'NONE', #256, .T. ) ;
#189 = TOROIDAL_SURFACE ( 'NONE', #10, 1.721999999999999975, 1.000000000000000000 ) ;
#190 = VERTEX_POINT ( 'NONE', #18 ) ;
#191 = ORIENTED_EDGE ( 'NONE', *, *, #169, .F. ) ;
#192 = PLANE ( 'NONE',  #53 ) ;
#193 = DIRECTION ( 'NONE',  ( 0.0000000000000000000, 1.000000000000000000, 0.0000000000000000000 ) ) ;
#194 = AXIS2_PLACEMENT_3D ( 'NONE', #95, #25, #145 ) ;
#195 = EDGE_LOOP ( 'NONE', ( #129 ) ) ;
#196 = APPROVAL ( #123, 'UNSPECIFIED' ) ;
#197 = APPROVAL_DATE_TIME ( #215, #290 ) ;
#198 = EDGE_LOOP ( 'NONE', ( #4 ) ) ;
#199 = CARTESIAN_POINT ( 'NONE',  ( 2.456658614367850475E-14, -8.616798478092993046E-16, 7.036149920199313179 ) ) ;
#200 = CARTESIAN_POINT ( 'NONE',  ( 1.955229549752154679E-14, 5.414132815409295126E-33, 5.599999999999999645 ) ) ;
#201 = CIRCLE ( 'NONE', #78, 0.7219999999999993090 ) ;
#202 = EDGE_CURVE ( 'NONE', #167, #167, #219, .T. ) ;
#203 = CARTESIAN_POINT ( 'NONE',  ( -6.306851382698013682E-32, 2.212145679426240040E-33, -1.806354028742345987E-17 ) ) ;
#204 =( NAMED_UNIT ( * ) PLANE_ANGLE_UNIT ( ) SI_UNIT ( $, .RADIAN. ) );
#205 = PLANE ( 'NONE',  #267 ) ;
#206 = DIRECTION ( 'NONE',  ( 1.000000000000000000, 0.0000000000000000000, 0.0000000000000000000 ) ) ;
#207 = ORIENTED_EDGE ( 'NONE', *, *, #169, .T. ) ;
#208 = VERTEX_POINT ( 'NONE', #65 ) ;
#209 = DIRECTION ( 'NONE',  ( 3.491481338843133355E-15, -1.224646799147353207E-16, 1.000000000000000000 ) ) ;
#210 = ORIENTED_EDGE ( 'NONE', *, *, #296, .T. ) ;
#211 = LOCAL_TIME ( 13, 38, 6.000000000000000000, #143 ) ;
#212 = CARTESIAN_POINT ( 'NONE',  ( 1.955229549752154679E-14, 0.7219999999999991980, 5.599999999999999645 ) ) ;
#213 = ORIENTED_EDGE ( 'NONE', *, *, #217, .F. ) ;
#214 = DIRECTION ( 'NONE',  ( -3.491481338843133355E-15, 1.224646799147353207E-16, -1.000000000000000000 ) ) ;
#215 = DATE_AND_TIME ( #77, #185 ) ;
#216 = DIRECTION ( 'NONE',  ( 4.481640313672960725E-31, 1.000000000000000000, 1.261469602916633671E-16 ) ) ;
#217 = EDGE_CURVE ( 'NONE', #190, #190, #93, .T. ) ;
#218 = FACE_OUTER_BOUND ( 'NONE', #243, .T. ) ;
#219 = CIRCLE ( 'NONE', #166, 0.7560741737109299976 ) ;
#220 = EDGE_LOOP ( 'NONE', ( #33 ) ) ;
#221 = UNCERTAINTY_MEASURE_WITH_UNIT (LENGTH_MEASURE( 1.000000000000000082E-05 ), #255, 'distance_accuracy_value', 'NONE');
#222 = DATE_TIME_ROLE ( 'classification_date' ) ;
#223 = EDGE_LOOP ( 'NONE', ( #191 ) ) ;
#224 = DIRECTION ( 'NONE',  ( 0.0000000000000000000, 1.000000000000000000, 0.0000000000000000000 ) ) ;
#225 = FACE_BOUND ( 'NONE', #121, .T. ) ;
#226 = AXIS2_PLACEMENT_3D ( 'NONE', #200, #109, #15 ) ;
#227 = PLANE ( 'NONE',  #108 ) ;
#228 = PERSON_AND_ORGANIZATION_ROLE ( 'design_owner' ) ;
#229 = ADVANCED_FACE ( 'NONE', ( #153 ), #107, .F. ) ;
#230 = ADVANCED_BREP_SHAPE_REPRESENTATION ( '305804', ( #150, #35, #54 ), #23 ) ;
#231 = DIRECTION ( 'NONE',  ( 3.491481338843133355E-15, -1.224646799147353207E-16, 1.000000000000000000 ) ) ;
#232 = CARTESIAN_POINT ( 'NONE',  ( 1.955229549752154679E-14, -6.858022075225177566E-16, 5.599999999999999645 ) ) ;
#233 = DIRECTION ( 'NONE',  ( -5.334985995532514703E-31, -1.000000000000000000, -1.501665058844190491E-16 ) ) ;
#234 = DIRECTION ( 'NONE',  ( 0.0000000000000000000, 0.0000000000000000000, 1.000000000000000000 ) ) ;
#235 = ADVANCED_FACE ( 'NONE', ( #271 ), #205, .F. ) ;
#236 = APPROVAL_STATUS ( 'not_yet_approved' ) ;
#237 = FACE_OUTER_BOUND ( 'NONE', #272, .T. ) ;
#238 = SHAPE_DEFINITION_REPRESENTATION ( #266, #230 ) ;
#239 = EDGE_CURVE ( 'NONE', #67, #67, #97, .T. ) ;
#240 = AXIS2_PLACEMENT_3D ( 'NONE', #86, #11, #161 ) ;
#241 = PERSON_AND_ORGANIZATION ( #283, #80 ) ;
#242 = APPROVAL_PERSON_ORGANIZATION ( #69, #290, #175 ) ;
#243 = EDGE_LOOP ( 'NONE', ( #154 ) ) ;
#244 = ADVANCED_FACE ( 'NONE', ( #59, #159 ), #301, .T. ) ;
#245 = CYLINDRICAL_SURFACE ( 'NONE', #176, 0.7219999999999999751 ) ;
#246 = AXIS2_PLACEMENT_3D ( 'NONE', #76, #135, #34 ) ;
#247 = EDGE_CURVE ( 'NONE', #208, #208, #201, .T. ) ;
#248 = DIRECTION ( 'NONE',  ( 0.0000000000000000000, 1.000000000000000000, 0.0000000000000000000 ) ) ;
#249 = ORIENTED_EDGE ( 'NONE', *, *, #239, .T. ) ;
#250 = AXIS2_PLACEMENT_3D ( 'NONE', #81, #72, #125 ) ;
#251 = ADVANCED_FACE ( 'NONE', ( #168, #225 ), #275, .T. ) ;
#252 = CARTESIAN_POINT ( 'NONE',  ( 1.955229549752154679E-14, 0.7219999999999991980, 5.599999999999999645 ) ) ;
#253 = DIRECTION ( 'NONE',  ( 3.491481338843133355E-15, -1.224646799147353207E-16, 1.000000000000000000 ) ) ;
#254 = DIRECTION ( 'NONE',  ( 4.275831445896958607E-31, 1.000000000000000000, 1.224646799147353454E-16 ) ) ;
#255 =( LENGTH_UNIT ( ) NAMED_UNIT ( * ) SI_UNIT ( .MILLI., .METRE. ) );
#256 = EDGE_LOOP ( 'NONE', ( #210 ) ) ;
#257 = CC_DESIGN_APPROVAL ( #117, ( #265 ) ) ;
#258 = DIRECTION ( 'NONE',  ( -3.491481338843133355E-15, 1.224646799147353207E-16, -1.000000000000000000 ) ) ;
#259 = ADVANCED_FACE ( 'NONE', ( #183 ), #227, .F. ) ;
#260 = CIRCLE ( 'NONE', #180, 0.7219999999999998641 ) ;
#261 = PERSON_AND_ORGANIZATION ( #283, #80 ) ;
#262 = CARTESIAN_POINT ( 'NONE',  ( 0.0000000000000000000, 0.0000000000000000000, 0.0000000000000000000 ) ) ;
#263 = EDGE_LOOP ( 'NONE', ( #162 ) ) ;
#264 = CIRCLE ( 'NONE', #83, 0.7499999999999972244 ) ;
#265 = PRODUCT_DEFINITION ( 'UNKNOWN', '', #120, #26 ) ;
#266 = PRODUCT_DEFINITION_SHAPE ( 'NONE', 'NONE',  #265 ) ;
#267 = AXIS2_PLACEMENT_3D ( 'NONE', #203, #253, #62 ) ;
#268 = CARTESIAN_POINT ( 'NONE',  ( 1.042207179644675275E-13, 0.7499999999999947820, 29.84999999999999787 ) ) ;
#269 = EDGE_LOOP ( 'NONE', ( #116 ) ) ;
#270 = APPROVAL_DATE_TIME ( #22, #117 ) ;
#271 = FACE_OUTER_BOUND ( 'NONE', #130, .T. ) ;
#272 = EDGE_LOOP ( 'NONE', ( #142 ) ) ;
#273 = CARTESIAN_POINT ( 'NONE',  ( 7.047396692567893409E-16, 0.6446065981170271408, 0.2018454635333372937 ) ) ;
#274 = DIRECTION ( 'NONE',  ( -3.491481338843133355E-15, 1.224646799147353207E-16, -1.000000000000000000 ) ) ;
#275 = CONICAL_SURFACE ( 'NONE', #240, 0.5999999999999986455, 0.7853981633974450594 ) ;
#276 = CYLINDRICAL_SURFACE ( 'NONE', #164, 0.7219999999999995310 ) ;
#277 = VERTEX_POINT ( 'NONE', #212 ) ;
#278 = FACE_OUTER_BOUND ( 'NONE', #286, .T. ) ;
#279 = FACE_OUTER_BOUND ( 'NONE', #269, .T. ) ;
#280 = ADVANCED_FACE ( 'NONE', ( #218, #106 ), #245, .T. ) ;
#281 = CLOSED_SHELL ( 'NONE', ( #235, #244, #70, #84, #55 ) ) ;
#282 = PERSON_AND_ORGANIZATION ( #283, #80 ) ;
#283 = PERSON ( 'UNSPECIFIED', 'UNSPECIFIED', 'UNSPECIFIED', ('UNSPECIFIED'), ('UNSPECIFIED'), ('UNSPECIFIED') ) ;
#284 = CARTESIAN_POINT ( 'NONE',  ( 2.464573497024593264E-14, -8.644560149345169293E-16, 7.058819045102513456 ) ) ;
#285 = EDGE_CURVE ( 'NONE', #277, #277, #127, .T. ) ;
#286 = EDGE_LOOP ( 'NONE', ( #66 ) ) ;
#287 = DATE_AND_TIME ( #100, #211 ) ;
#288 = APPROVAL_PERSON_ORGANIZATION ( #261, #196, #75 ) ;
#289 = PERSON_AND_ORGANIZATION_ROLE ( 'design_supplier' ) ;
#290 = APPROVAL ( #98, 'UNSPECIFIED' ) ;
#291 = AXIS2_PLACEMENT_3D ( 'NONE', #68, #174, #233 ) ;
#292 = CIRCLE ( 'NONE', #250, 0.5999999999999986455 ) ;
#293 = CARTESIAN_POINT ( 'NONE',  ( 2.094888803305879619E-15, -7.347880794884117764E-17, 0.5999999999999999778 ) ) ;
#294 = DIRECTION ( 'NONE',  ( -3.491481338843133355E-15, 1.224646799147353207E-16, -1.000000000000000000 ) ) ;
#295 = VERTEX_POINT ( 'NONE', #268 ) ;
#296 = EDGE_CURVE ( 'NONE', #94, #94, #260, .T. ) ;
#297 = FACE_OUTER_BOUND ( 'NONE', #101, .T. ) ;
#298 = CARTESIAN_POINT ( 'NONE',  ( 7.047396692567890451E-16, -2.471894008385152386E-17, 0.2018454635333372105 ) ) ;
#299 = EDGE_LOOP ( 'NONE', ( #151 ) ) ;
#300 = VERTEX_POINT ( 'NONE', #92 ) ;
#301 = CONICAL_SURFACE ( 'NONE', #28, 0.6446065981170271408, 1.047197551196592968 ) ;
#302 =( NAMED_UNIT ( * ) SI_UNIT ( $, .STERADIAN. ) SOLID_ANGLE_UNIT ( ) );
#303 = DIRECTION ( 'NONE',  ( -3.491481338843133355E-15, 1.224646799147353207E-16, -1.000000000000000000 ) ) ;
ENDSEC;
END-ISO-10303-21;
