ISO-10303-21;
HEADER;
FILE_DESCRIPTION (( 'STEP AP203' ),
    '1' );
FILE_NAME ('305802.step',
    '2021-12-17T12:38:06',
    ( '' ),
    ( '' ),
    'SwSTEP 2.0',
    'SolidWorks 2019',
    '' );
FILE_SCHEMA (( 'CONFIG_CONTROL_DESIGN' ));
ENDSEC;

DATA;
#1 = CARTESIAN_POINT ( 'NONE',  ( 1.955229549752154679E-14, -6.858022075225177566E-16, 5.599999999999999645 ) ) ;
#2 = DESIGN_CONTEXT ( 'detailed design', #87, 'design' ) ;
#3 = CARTESIAN_POINT ( 'NONE',  ( -2.015325774665820220E-31, 7.068811257062093682E-33, -5.772122429082144719E-17 ) ) ;
#4 = CARTESIAN_POINT ( 'NONE',  ( 1.042207179644675275E-13, -3.655570695454848748E-15, 29.84999999999999787 ) ) ;
#5 = AXIS2_PLACEMENT_3D ( 'NONE', #238, #239, #222 ) ;
#6 = DIRECTION ( 'NONE',  ( -3.491481338843133355E-15, 1.224646799147353207E-16, -1.000000000000000000 ) ) ;
#7 = DATE_AND_TIME ( #127, #286 ) ;
#8 = AXIS2_PLACEMENT_3D ( 'NONE', #266, #226, #105 ) ;
#9 = ADVANCED_FACE ( 'NONE', ( #163, #250 ), #296, .T. ) ;
#10 = DIRECTION ( 'NONE',  ( 3.491481338843133355E-15, -1.224646799147353207E-16, 1.000000000000000000 ) ) ;
#11 = CIRCLE ( 'NONE', #176, 0.7155000000000000249 ) ;
#12 = PERSON_AND_ORGANIZATION_ROLE ( 'design_owner' ) ;
#13 = PLANE ( 'NONE',  #158 ) ;
#14 = ORIENTED_EDGE ( 'NONE', *, *, #49, .T. ) ;
#15 = CARTESIAN_POINT ( 'NONE',  ( 2.234548056859605347E-14, 0.7154999999999993587, 6.400000000000000355 ) ) ;
#16 = EDGE_LOOP ( 'NONE', ( #182 ) ) ;
#17 = CIRCLE ( 'NONE', #142, 0.7155000000000001359 ) ;
#18 = ADVANCED_FACE ( 'NONE', ( #192, #146 ), #282, .T. ) ;
#19 = EDGE_LOOP ( 'NONE', ( #64 ) ) ;
#20 = CARTESIAN_POINT ( 'NONE',  ( 1.042207179644675275E-13, 0.7499999999999947820, 29.84999999999999787 ) ) ;
#21 = ORIENTED_EDGE ( 'NONE', *, *, #199, .T. ) ;
#22 = CARTESIAN_POINT ( 'NONE',  ( 8.804321054579601883E-16, -3.088140119267865124E-17, 0.2521657772198439562 ) ) ;
#23 = PLANE ( 'NONE',  #5 ) ;
#24 = APPLICATION_CONTEXT ( 'configuration controlled 3d designs of mechanical parts and assemblies' ) ;
#25 = DIRECTION ( 'NONE',  ( -3.491481338843133355E-15, 1.224646799147353207E-16, -1.000000000000000000 ) ) ;
#26 = DIRECTION ( 'NONE',  ( 3.491481338843133355E-15, -1.224646799147353207E-16, 1.000000000000000000 ) ) ;
#27 = FACE_BOUND ( 'NONE', #272, .T. ) ;
#28 = AXIS2_PLACEMENT_3D ( 'NONE', #195, #241, #74 ) ;
#29 = PRODUCT_DEFINITION ( 'UNKNOWN', '', #130, #2 ) ;
#30 = VERTEX_POINT ( 'NONE', #223 ) ;
#31 = MANIFOLD_SOLID_BREP ( 'Corps-Déplacer/Copier1[1]', #186 ) ;
#32 = APPROVAL_STATUS ( 'not_yet_approved' ) ;
#33 = CC_DESIGN_PERSON_AND_ORGANIZATION_ASSIGNMENT ( #116, #119, ( #130 ) ) ;
#34 = ADVANCED_FACE ( 'NONE', ( #190 ), #13, .F. ) ;
#35 = ORIENTED_EDGE ( 'NONE', *, *, #49, .F. ) ;
#36 = DIRECTION ( 'NONE',  ( 1.000000000000000000, 0.0000000000000000000, 0.0000000000000000000 ) ) ;
#37 = EDGE_LOOP ( 'NONE', ( #21 ) ) ;
#38 = ADVANCED_BREP_SHAPE_REPRESENTATION ( '305802', ( #31, #137, #265 ), #275 ) ;
#39 =( LENGTH_UNIT ( ) NAMED_UNIT ( * ) SI_UNIT ( .MILLI., .METRE. ) );
#40 = CIRCLE ( 'NONE', #46, 0.2500000000000000555 ) ;
#41 = APPROVAL ( #277, 'UNSPECIFIED' ) ;
#42 = FACE_BOUND ( 'NONE', #85, .T. ) ;
#43 = CALENDAR_DATE ( 2021, 17, 12 ) ;
#44 = DIRECTION ( 'NONE',  ( -3.491481338843133355E-15, 1.224646799147353207E-16, -1.000000000000000000 ) ) ;
#45 = FACE_OUTER_BOUND ( 'NONE', #108, .T. ) ;
#46 = AXIS2_PLACEMENT_3D ( 'NONE', #3, #196, #281 ) ;
#47 = DIRECTION ( 'NONE',  ( 3.491481338843133355E-15, -1.224646799147353207E-16, 1.000000000000000000 ) ) ;
#48 = CARTESIAN_POINT ( 'NONE',  ( 2.324914243470868561E-14, -8.154701429686230081E-16, 6.658819045102514877 ) ) ;
#49 = EDGE_CURVE ( 'NONE', #174, #174, #134, .T. ) ;
#50 = CARTESIAN_POINT ( 'NONE',  ( 1.396592535537253145E-15, -4.898587196589411843E-17, 0.3999999999999999112 ) ) ;
#51 = PERSON ( 'UNSPECIFIED', 'UNSPECIFIED', 'UNSPECIFIED', ('UNSPECIFIED'), ('UNSPECIFIED'), ('UNSPECIFIED') ) ;
#52 = DATE_AND_TIME ( #43, #80 ) ;
#53 = AXIS2_PLACEMENT_3D ( 'NONE', #217, #25, #152 ) ;
#54 = CONICAL_SURFACE ( 'NONE', #234, 0.7499999999999972244, 0.2617993877992081386 ) ;
#55 = VERTEX_POINT ( 'NONE', #229 ) ;
#56 = CC_DESIGN_PERSON_AND_ORGANIZATION_ASSIGNMENT ( #82, #191, ( #29 ) ) ;
#57 = APPROVAL_STATUS ( 'not_yet_approved' ) ;
#58 = ORIENTED_EDGE ( 'NONE', *, *, #106, .T. ) ;
#59 = CIRCLE ( 'NONE', #246, 0.7155000000000000249 ) ;
#60 = ORIENTED_EDGE ( 'NONE', *, *, #89, .F. ) ;
#61 = MECHANICAL_CONTEXT ( 'NONE', #24, 'mechanical' ) ;
#62 = CARTESIAN_POINT ( 'NONE',  ( 2.325469111551782468E-14, -8.156647644926393314E-16, 6.660408250448512035 ) ) ;
#63 = SECURITY_CLASSIFICATION_LEVEL ( 'unclassified' ) ;
#64 = ORIENTED_EDGE ( 'NONE', *, *, #78, .T. ) ;
#65 = APPROVAL_DATE_TIME ( #149, #41 ) ;
#66 = ADVANCED_FACE ( 'NONE', ( #42, #236 ), #180, .T. ) ;
#67 = CARTESIAN_POINT ( 'NONE',  ( 2.234548056859605347E-14, -7.837739514543060920E-16, 6.400000000000000355 ) ) ;
#68 = CALENDAR_DATE ( 2021, 17, 12 ) ;
#69 = CARTESIAN_POINT ( 'NONE',  ( 2.325469111551782468E-14, -8.156647644926393314E-16, 6.660408250448512035 ) ) ;
#70 = DIRECTION ( 'NONE',  ( 5.608710177141838833E-31, 1.000000000000000000, 1.578711566487818374E-16 ) ) ;
#71 = CC_DESIGN_PERSON_AND_ORGANIZATION_ASSIGNMENT ( #100, #147, ( #270 ) ) ;
#72 = AXIS2_PLACEMENT_3D ( 'NONE', #83, #214, #139 ) ;
#73 = DIRECTION ( 'NONE',  ( 0.0000000000000000000, -1.000000000000000000, 0.0000000000000000000 ) ) ;
#74 = DIRECTION ( 'NONE',  ( -4.275831445896958607E-31, -1.000000000000000000, -1.224646799147353207E-16 ) ) ;
#75 = APPROVAL_ROLE ( '' ) ;
#76 = AXIS2_PLACEMENT_3D ( 'NONE', #4, #98, #262 ) ;
#77 = PERSON_AND_ORGANIZATION ( #51, #161 ) ;
#78 = EDGE_CURVE ( 'NONE', #243, #243, #59, .T. ) ;
#79 = CIRCLE ( 'NONE', #218, 0.7495741737109300473 ) ;
#80 = LOCAL_TIME ( 13, 38, 6.000000000000000000, #263 ) ;
#81 = EDGE_CURVE ( 'NONE', #30, #30, #79, .T. ) ;
#82 = PERSON_AND_ORGANIZATION ( #51, #161 ) ;
#83 = CARTESIAN_POINT ( 'NONE',  ( 1.047444401652940007E-13, -3.673940397442059178E-15, 30.00000000000000000 ) ) ;
#84 = VERTEX_POINT ( 'NONE', #247 ) ;
#85 = EDGE_LOOP ( 'NONE', ( #178 ) ) ;
#86 = AXIS2_PLACEMENT_3D ( 'NONE', #212, #114, #88 ) ;
#87 = APPLICATION_CONTEXT ( 'configuration controlled 3d designs of mechanical parts and assemblies' ) ;
#88 = DIRECTION ( 'NONE',  ( -5.608710177141838833E-31, -1.000000000000000000, -1.578711566487818374E-16 ) ) ;
#89 = EDGE_CURVE ( 'NONE', #144, #144, #17, .T. ) ;
#90 = CALENDAR_DATE ( 2021, 17, 12 ) ;
#91 = DIRECTION ( 'NONE',  ( 4.275831445896958607E-31, 1.000000000000000000, 1.224646799147353207E-16 ) ) ;
#92 = DATE_TIME_ROLE ( 'creation_date' ) ;
#93 = ORIENTED_EDGE ( 'NONE', *, *, #122, .T. ) ;
#94 = DIRECTION ( 'NONE',  ( -3.491481338843133355E-15, 1.224646799147353207E-16, -1.000000000000000000 ) ) ;
#95 = CYLINDRICAL_SURFACE ( 'NONE', #156, 0.7499999999999978906 ) ;
#96 = FACE_OUTER_BOUND ( 'NONE', #271, .T. ) ;
#97 = CC_DESIGN_APPROVAL ( #115, ( #29 ) ) ;
#98 = DIRECTION ( 'NONE',  ( -3.491481338843133355E-15, 1.224646799147353207E-16, -1.000000000000000000 ) ) ;
#99 = DIRECTION ( 'NONE',  ( 4.275831445896957731E-31, 1.000000000000000000, 1.224646799147353207E-16 ) ) ;
#100 = PERSON_AND_ORGANIZATION ( #51, #161 ) ;
#101 = APPROVAL_DATE_TIME ( #7, #273 ) ;
#102 = ADVANCED_FACE ( 'NONE', ( #96, #240 ), #95, .T. ) ;
#103 = TOROIDAL_SURFACE ( 'NONE', #8, 1.715500000000000025, 1.000000000000000000 ) ;
#104 = LOCAL_TIME ( 13, 38, 6.000000000000000000, #299 ) ;
#105 = DIRECTION ( 'NONE',  ( 4.275831445896958607E-31, 1.000000000000000000, 1.224646799147353207E-16 ) ) ;
#106 = EDGE_CURVE ( 'NONE', #135, #135, #197, .T. ) ;
#107 = DIRECTION ( 'NONE',  ( -4.275831445896958607E-31, -1.000000000000000000, -1.224646799147353207E-16 ) ) ;
#108 = EDGE_LOOP ( 'NONE', ( #93 ) ) ;
#109 = CARTESIAN_POINT ( 'NONE',  ( 1.955229549752154679E-14, 0.7154999999999993587, 5.599999999999999645 ) ) ;
#110 = DIRECTION ( 'NONE',  ( -3.491481338843133355E-15, 1.224646799147353207E-16, -1.000000000000000000 ) ) ;
#111 = ORIENTED_EDGE ( 'NONE', *, *, #199, .F. ) ;
#112 = ORIENTED_EDGE ( 'NONE', *, *, #122, .F. ) ;
#113 = EDGE_LOOP ( 'NONE', ( #208 ) ) ;
#114 = DIRECTION ( 'NONE',  ( 3.491481338843133355E-15, -1.224646799147353207E-16, 1.000000000000000000 ) ) ;
#115 = APPROVAL ( #57, 'UNSPECIFIED' ) ;
#116 = PERSON_AND_ORGANIZATION ( #51, #161 ) ;
#117 = CARTESIAN_POINT ( 'NONE',  ( 0.0000000000000000000, 0.0000000000000000000, 0.0000000000000000000 ) ) ;
#118 = AXIS2_PLACEMENT_3D ( 'NONE', #117, #94, #284 ) ;
#119 = PERSON_AND_ORGANIZATION_ROLE ( 'creator' ) ;
#120 = PLANE ( 'NONE',  #28 ) ;
#121 = FACE_OUTER_BOUND ( 'NONE', #126, .T. ) ;
#122 = EDGE_CURVE ( 'NONE', #231, #231, #11, .T. ) ;
#123 = DIRECTION ( 'NONE',  ( 0.0000000000000000000, 1.000000000000000000, 0.0000000000000000000 ) ) ;
#124 = FACE_OUTER_BOUND ( 'NONE', #19, .T. ) ;
#125 = CARTESIAN_POINT ( 'NONE',  ( 1.955229549752154679E-14, 0.7154999999999993587, 5.599999999999999645 ) ) ;
#126 = EDGE_LOOP ( 'NONE', ( #294 ) ) ;
#127 = CALENDAR_DATE ( 2021, 17, 12 ) ;
#128 = CALENDAR_DATE ( 2021, 17, 12 ) ;
#129 = CIRCLE ( 'NONE', #160, 0.6867639380748594702 ) ;
#130 = PRODUCT_DEFINITION_FORMATION_WITH_SPECIFIED_SOURCE ( 'ANY', '', #204, .NOT_KNOWN. ) ;
#131 = CC_DESIGN_PERSON_AND_ORGANIZATION_ASSIGNMENT ( #274, #157, ( #130 ) ) ;
#132 = APPLICATION_PROTOCOL_DEFINITION ( 'international standard', 'config_control_design', 1994, #24 ) ;
#133 = ORIENTED_EDGE ( 'NONE', *, *, #81, .T. ) ;
#134 = CIRCLE ( 'NONE', #267, 0.7499999999999972244 ) ;
#135 = VERTEX_POINT ( 'NONE', #187 ) ;
#136 = EDGE_LOOP ( 'NONE', ( #133 ) ) ;
#137 = MANIFOLD_SOLID_BREP ( 'Corps-Déplacer/Copier1[2]', #269 ) ;
#138 = PRODUCT_DEFINITION_SHAPE ( 'NONE', 'NONE',  #29 ) ;
#139 = DIRECTION ( 'NONE',  ( 0.0000000000000000000, 1.000000000000000000, 0.0000000000000000000 ) ) ;
#140 = CARTESIAN_POINT ( 'NONE',  ( 0.0000000000000000000, 0.0000000000000000000, 0.0000000000000000000 ) ) ;
#141 = EDGE_LOOP ( 'NONE', ( #248 ) ) ;
#142 = AXIS2_PLACEMENT_3D ( 'NONE', #67, #198, #219 ) ;
#143 = CC_DESIGN_SECURITY_CLASSIFICATION ( #270, ( #130 ) ) ;
#144 = VERTEX_POINT ( 'NONE', #15 ) ;
#145 = EDGE_CURVE ( 'NONE', #292, #292, #253, .T. ) ;
#146 = FACE_OUTER_BOUND ( 'NONE', #235, .T. ) ;
#147 = PERSON_AND_ORGANIZATION_ROLE ( 'classification_officer' ) ;
#148 = CYLINDRICAL_SURFACE ( 'NONE', #228, 0.7155000000000000249 ) ;
#149 = DATE_AND_TIME ( #68, #104 ) ;
#150 = CYLINDRICAL_SURFACE ( 'NONE', #118, 0.7154999999999996918 ) ;
#151 = AXIS2_PLACEMENT_3D ( 'NONE', #181, #10, #107 ) ;
#152 = DIRECTION ( 'NONE',  ( 0.0000000000000000000, 1.000000000000000000, 0.0000000000000000000 ) ) ;
#153 = ADVANCED_FACE ( 'NONE', ( #220, #45 ), #150, .T. ) ;
#154 = DIRECTION ( 'NONE',  ( -3.491481338843133355E-15, 1.224646799147353207E-16, -1.000000000000000000 ) ) ;
#155 = CARTESIAN_POINT ( 'NONE',  ( 1.955229549752154679E-14, -6.858022075225177566E-16, 5.599999999999999645 ) ) ;
#156 = AXIS2_PLACEMENT_3D ( 'NONE', #193, #200, #258 ) ;
#157 = PERSON_AND_ORGANIZATION_ROLE ( 'design_supplier' ) ;
#158 = AXIS2_PLACEMENT_3D ( 'NONE', #297, #110, #91 ) ;
#159 = EDGE_LOOP ( 'NONE', ( #111 ) ) ;
#160 = AXIS2_PLACEMENT_3D ( 'NONE', #22, #302, #70 ) ;
#161 = ORGANIZATION ( 'UNSPECIFIED', 'UNSPECIFIED', '' ) ;
#162 = PERSON_AND_ORGANIZATION ( #51, #161 ) ;
#163 = FACE_OUTER_BOUND ( 'NONE', #113, .T. ) ;
#164 =( NAMED_UNIT ( * ) PLANE_ANGLE_UNIT ( ) SI_UNIT ( $, .RADIAN. ) );
#165 = VERTEX_POINT ( 'NONE', #189 ) ;
#166 = DIRECTION ( 'NONE',  ( -3.491481338843133355E-15, 1.224646799147353207E-16, -1.000000000000000000 ) ) ;
#167 = PERSON_AND_ORGANIZATION ( #51, #161 ) ;
#168 = EDGE_LOOP ( 'NONE', ( #276 ) ) ;
#169 = DIRECTION ( 'NONE',  ( -5.383451975925192201E-31, -1.000000000000000000, -1.515307019546478500E-16 ) ) ;
#170 = DIRECTION ( 'NONE',  ( 0.0000000000000000000, 1.000000000000000000, 0.0000000000000000000 ) ) ;
#171 = FACE_OUTER_BOUND ( 'NONE', #289, .T. ) ;
#172 = DIRECTION ( 'NONE',  ( 0.0000000000000000000, 1.000000000000000000, 0.0000000000000000000 ) ) ;
#173 = ADVANCED_FACE ( 'NONE', ( #124 ), #120, .F. ) ;
#174 = VERTEX_POINT ( 'NONE', #264 ) ;
#175 = COORDINATED_UNIVERSAL_TIME_OFFSET ( 1, 0, .AHEAD. ) ;
#176 = AXIS2_PLACEMENT_3D ( 'NONE', #155, #257, #170 ) ;
#177 = APPROVAL_PERSON_ORGANIZATION ( #167, #273, #201 ) ;
#178 = ORIENTED_EDGE ( 'NONE', *, *, #261, .F. ) ;
#179 = ADVANCED_FACE ( 'NONE', ( #27, #280 ), #54, .T. ) ;
#180 = CONICAL_SURFACE ( 'NONE', #184, 0.7154999999999993587, 0.1919862177193683295 ) ;
#181 = CARTESIAN_POINT ( 'NONE',  ( -1.007662887332910110E-31, 3.534405628531046841E-33, -2.886061214541072360E-17 ) ) ;
#182 = ORIENTED_EDGE ( 'NONE', *, *, #245, .T. ) ;
#183 = DIRECTION ( 'NONE',  ( 0.0000000000000000000, 0.0000000000000000000, 1.000000000000000000 ) ) ;
#184 = AXIS2_PLACEMENT_3D ( 'NONE', #278, #26, #169 ) ;
#185 = EDGE_LOOP ( 'NONE', ( #188 ) ) ;
#186 = CLOSED_SHELL ( 'NONE', ( #173, #244, #293, #179, #102, #9, #34 ) ) ;
#187 = CARTESIAN_POINT ( 'NONE',  ( 1.396592535537253539E-15, 0.7154999999999993587, 0.4000000000000000222 ) ) ;
#188 = ORIENTED_EDGE ( 'NONE', *, *, #145, .T. ) ;
#189 = CARTESIAN_POINT ( 'NONE',  ( 1.047444401652940007E-13, 0.5999999999999949818, 30.00000000000000000 ) ) ;
#190 = FACE_OUTER_BOUND ( 'NONE', #159, .T. ) ;
#191 = PERSON_AND_ORGANIZATION_ROLE ( 'creator' ) ;
#192 = FACE_BOUND ( 'NONE', #168, .T. ) ;
#193 = CARTESIAN_POINT ( 'NONE',  ( 0.0000000000000000000, 0.0000000000000000000, 0.0000000000000000000 ) ) ;
#194 = CC_DESIGN_DATE_AND_TIME_ASSIGNMENT ( #224, #92, ( #29 ) ) ;
#195 = CARTESIAN_POINT ( 'NONE',  ( 1.955229549752154679E-14, 5.365390622472786588E-33, 5.599999999999999645 ) ) ;
#196 = DIRECTION ( 'NONE',  ( -3.491481338843133355E-15, 1.224646799147353207E-16, -1.000000000000000000 ) ) ;
#197 = CIRCLE ( 'NONE', #242, 0.7154999999999993587 ) ;
#198 = DIRECTION ( 'NONE',  ( -3.491481338843133355E-15, 1.224646799147353207E-16, -1.000000000000000000 ) ) ;
#199 = EDGE_CURVE ( 'NONE', #165, #165, #301, .T. ) ;
#200 = DIRECTION ( 'NONE',  ( -3.491481338843133355E-15, 1.224646799147353207E-16, -1.000000000000000000 ) ) ;
#201 = APPROVAL_ROLE ( '' ) ;
#202 = COORDINATED_UNIVERSAL_TIME_OFFSET ( 1, 0, .AHEAD. ) ;
#203 = CC_DESIGN_APPROVAL ( #273, ( #270 ) ) ;
#204 = PRODUCT ( '305802', '305802', '', ( #61 ) ) ;
#205 = FACE_OUTER_BOUND ( 'NONE', #16, .T. ) ;
#206 = FACE_OUTER_BOUND ( 'NONE', #136, .T. ) ;
#207 = LOCAL_TIME ( 13, 38, 6.000000000000000000, #202 ) ;
#208 = ORIENTED_EDGE ( 'NONE', *, *, #145, .F. ) ;
#209 =( NAMED_UNIT ( * ) SI_UNIT ( $, .STERADIAN. ) SOLID_ANGLE_UNIT ( ) );
#210 = ORIENTED_EDGE ( 'NONE', *, *, #261, .T. ) ;
#211 = EDGE_LOOP ( 'NONE', ( #14 ) ) ;
#212 = CARTESIAN_POINT ( 'NONE',  ( 8.804321054579601883E-16, -3.088140119267865124E-17, 0.2521657772198439562 ) ) ;
#213 = APPROVAL_ROLE ( '' ) ;
#214 = DIRECTION ( 'NONE',  ( -3.491481338843133355E-15, 1.224646799147353207E-16, -1.000000000000000000 ) ) ;
#215 = CC_DESIGN_PERSON_AND_ORGANIZATION_ASSIGNMENT ( #162, #12, ( #204 ) ) ;
#216 = APPROVAL_DATE_TIME ( #252, #115 ) ;
#217 = CARTESIAN_POINT ( 'NONE',  ( 1.047444401652940007E-13, -3.673940397442059178E-15, 30.00000000000000000 ) ) ;
#218 = AXIS2_PLACEMENT_3D ( 'NONE', #48, #154, #172 ) ;
#219 = DIRECTION ( 'NONE',  ( 0.0000000000000000000, 1.000000000000000000, 0.0000000000000000000 ) ) ;
#220 = FACE_OUTER_BOUND ( 'NONE', #141, .T. ) ;
#221 = DIRECTION ( 'NONE',  ( 5.383451975925192201E-31, 1.000000000000000000, 1.515307019546478500E-16 ) ) ;
#222 = DIRECTION ( 'NONE',  ( -4.275831445896958607E-31, -1.000000000000000000, -1.224646799147353207E-16 ) ) ;
#223 = CARTESIAN_POINT ( 'NONE',  ( 2.324914243470868561E-14, 0.7495741737109291591, 6.658819045102514877 ) ) ;
#224 = DATE_AND_TIME ( #128, #207 ) ;
#225 = CC_DESIGN_APPROVAL ( #41, ( #130 ) ) ;
#226 = DIRECTION ( 'NONE',  ( -3.491481338843133355E-15, 1.224646799147353207E-16, -1.000000000000000000 ) ) ;
#227 = PRODUCT_RELATED_PRODUCT_CATEGORY ( 'detail', '', ( #204 ) ) ;
#228 = AXIS2_PLACEMENT_3D ( 'NONE', #237, #6, #99 ) ;
#229 = CARTESIAN_POINT ( 'NONE',  ( 8.804321054579605828E-16, 0.6867639380748594702, 0.2521657772198440672 ) ) ;
#230 = EDGE_LOOP ( 'NONE', ( #112 ) ) ;
#231 = VERTEX_POINT ( 'NONE', #109 ) ;
#232 = PERSON_AND_ORGANIZATION ( #51, #161 ) ;
#233 = ADVANCED_FACE ( 'NONE', ( #255 ), #23, .T. ) ;
#234 = AXIS2_PLACEMENT_3D ( 'NONE', #69, #47, #73 ) ;
#235 = EDGE_LOOP ( 'NONE', ( #210 ) ) ;
#236 = FACE_OUTER_BOUND ( 'NONE', #295, .T. ) ;
#237 = CARTESIAN_POINT ( 'NONE',  ( 0.0000000000000000000, 0.0000000000000000000, 0.0000000000000000000 ) ) ;
#238 = CARTESIAN_POINT ( 'NONE',  ( 1.955229549752154679E-14, 5.365390622472786588E-33, 5.599999999999999645 ) ) ;
#239 = DIRECTION ( 'NONE',  ( 3.491481338843133355E-15, -1.224646799147353207E-16, 1.000000000000000000 ) ) ;
#240 = FACE_OUTER_BOUND ( 'NONE', #185, .T. ) ;
#241 = DIRECTION ( 'NONE',  ( 3.491481338843133355E-15, -1.224646799147353207E-16, 1.000000000000000000 ) ) ;
#242 = AXIS2_PLACEMENT_3D ( 'NONE', #50, #285, #221 ) ;
#243 = VERTEX_POINT ( 'NONE', #125 ) ;
#244 = ADVANCED_FACE ( 'NONE', ( #121, #260 ), #148, .T. ) ;
#245 = EDGE_CURVE ( 'NONE', #84, #84, #40, .T. ) ;
#246 = AXIS2_PLACEMENT_3D ( 'NONE', #1, #44, #123 ) ;
#247 = CARTESIAN_POINT ( 'NONE',  ( -9.463679131915804593E-32, 0.2500000000000000555, -2.710505431213761085E-17 ) ) ;
#248 = ORIENTED_EDGE ( 'NONE', *, *, #106, .F. ) ;
#249 = COORDINATED_UNIVERSAL_TIME_OFFSET ( 1, 0, .AHEAD. ) ;
#250 = FACE_BOUND ( 'NONE', #37, .T. ) ;
#251 = EDGE_LOOP ( 'NONE', ( #291 ) ) ;
#252 = DATE_AND_TIME ( #90, #259 ) ;
#253 = CIRCLE ( 'NONE', #76, 0.7499999999999984457 ) ;
#254 = DIRECTION ( 'NONE',  ( 0.0000000000000000000, 1.000000000000000000, 0.0000000000000000000 ) ) ;
#255 = FACE_OUTER_BOUND ( 'NONE', #230, .T. ) ;
#256 = DATE_TIME_ROLE ( 'classification_date' ) ;
#257 = DIRECTION ( 'NONE',  ( -3.491481338843133355E-15, 1.224646799147353207E-16, -1.000000000000000000 ) ) ;
#258 = DIRECTION ( 'NONE',  ( 4.275831445896958607E-31, 1.000000000000000000, 1.224646799147353207E-16 ) ) ;
#259 = LOCAL_TIME ( 13, 38, 6.000000000000000000, #249 ) ;
#260 = FACE_OUTER_BOUND ( 'NONE', #251, .T. ) ;
#261 = EDGE_CURVE ( 'NONE', #55, #55, #129, .T. ) ;
#262 = DIRECTION ( 'NONE',  ( 0.0000000000000000000, 1.000000000000000000, 0.0000000000000000000 ) ) ;
#263 = COORDINATED_UNIVERSAL_TIME_OFFSET ( 1, 0, .AHEAD. ) ;
#264 = CARTESIAN_POINT ( 'NONE',  ( 2.325469111551782468E-14, 0.7499999999999963363, 6.660408250448512035 ) ) ;
#265 = AXIS2_PLACEMENT_3D ( 'NONE', #140, #183, #36 ) ;
#266 = CARTESIAN_POINT ( 'NONE',  ( 2.234548056859605663E-14, -8.673617379884035472E-16, 6.400000000000001243 ) ) ;
#267 = AXIS2_PLACEMENT_3D ( 'NONE', #62, #166, #254 ) ;
#268 = APPROVAL_PERSON_ORGANIZATION ( #232, #115, #213 ) ;
#269 = CLOSED_SHELL ( 'NONE', ( #298, #18, #66, #153, #233 ) ) ;
#270 = SECURITY_CLASSIFICATION ( '', '', #63 ) ;
#271 = EDGE_LOOP ( 'NONE', ( #35 ) ) ;
#272 = EDGE_LOOP ( 'NONE', ( #300 ) ) ;
#273 = APPROVAL ( #32, 'UNSPECIFIED' ) ;
#274 = PERSON_AND_ORGANIZATION ( #51, #161 ) ;
#275 =( GEOMETRIC_REPRESENTATION_CONTEXT ( 3 ) GLOBAL_UNCERTAINTY_ASSIGNED_CONTEXT ( ( #279 ) ) GLOBAL_UNIT_ASSIGNED_CONTEXT ( ( #39, #164, #209 ) ) REPRESENTATION_CONTEXT ( 'NONE', 'WORKASPACE' ) );
#276 = ORIENTED_EDGE ( 'NONE', *, *, #245, .F. ) ;
#277 = APPROVAL_STATUS ( 'not_yet_approved' ) ;
#278 = CARTESIAN_POINT ( 'NONE',  ( 1.396592535537253145E-15, -4.898587196589411843E-17, 0.3999999999999999112 ) ) ;
#279 = UNCERTAINTY_MEASURE_WITH_UNIT (LENGTH_MEASURE( 1.000000000000000082E-05 ), #39, 'distance_accuracy_value', 'NONE');
#280 = FACE_OUTER_BOUND ( 'NONE', #211, .T. ) ;
#281 = DIRECTION ( 'NONE',  ( 4.275831445896958607E-31, 1.000000000000000000, 1.224646799147353207E-16 ) ) ;
#282 = CONICAL_SURFACE ( 'NONE', #86, 0.6867639380748594702, 1.047197551196592746 ) ;
#283 = CC_DESIGN_DATE_AND_TIME_ASSIGNMENT ( #52, #256, ( #270 ) ) ;
#284 = DIRECTION ( 'NONE',  ( 4.275831445896958607E-31, 1.000000000000000000, 1.224646799147353207E-16 ) ) ;
#285 = DIRECTION ( 'NONE',  ( -3.491481338843133355E-15, 1.224646799147353207E-16, -1.000000000000000000 ) ) ;
#286 = LOCAL_TIME ( 13, 38, 6.000000000000000000, #175 ) ;
#287 = SHAPE_DEFINITION_REPRESENTATION ( #138, #38 ) ;
#288 = PLANE ( 'NONE',  #151 ) ;
#289 = EDGE_LOOP ( 'NONE', ( #60 ) ) ;
#290 = APPLICATION_PROTOCOL_DEFINITION ( 'international standard', 'config_control_design', 1994, #87 ) ;
#291 = ORIENTED_EDGE ( 'NONE', *, *, #89, .T. ) ;
#292 = VERTEX_POINT ( 'NONE', #20 ) ;
#293 = ADVANCED_FACE ( 'NONE', ( #171, #206 ), #103, .F. ) ;
#294 = ORIENTED_EDGE ( 'NONE', *, *, #78, .F. ) ;
#295 = EDGE_LOOP ( 'NONE', ( #58 ) ) ;
#296 = CONICAL_SURFACE ( 'NONE', #72, 0.5999999999999986455, 0.7853981633974450594 ) ;
#297 = CARTESIAN_POINT ( 'NONE',  ( 1.047444401652940007E-13, 4.499279347985507822E-33, 30.00000000000000000 ) ) ;
#298 = ADVANCED_FACE ( 'NONE', ( #205 ), #288, .F. ) ;
#299 = COORDINATED_UNIVERSAL_TIME_OFFSET ( 1, 0, .AHEAD. ) ;
#300 = ORIENTED_EDGE ( 'NONE', *, *, #81, .F. ) ;
#301 = CIRCLE ( 'NONE', #53, 0.5999999999999986455 ) ;
#302 = DIRECTION ( 'NONE',  ( -3.491481338843133355E-15, 1.224646799147353207E-16, -1.000000000000000000 ) ) ;
#303 = APPROVAL_PERSON_ORGANIZATION ( #77, #41, #75 ) ;
ENDSEC;
END-ISO-10303-21;
