ISO-10303-21;
HEADER;
FILE_DESCRIPTION (( 'STEP AP203' ),
    '1' );
FILE_NAME ('305801.step',
    '2021-12-17T12:38:05',
    ( '' ),
    ( '' ),
    'SwSTEP 2.0',
    'SolidWorks 2019',
    '' );
FILE_SCHEMA (( 'CONFIG_CONTROL_DESIGN' ));
ENDSEC;

DATA;
#1 = CLOSED_SHELL ( 'NONE', ( #282, #50, #231, #179, #155 ) ) ;
#2 = PRODUCT_RELATED_PRODUCT_CATEGORY ( 'detail', '', ( #41 ) ) ;
#3 = ORIENTED_EDGE ( 'NONE', *, *, #30, .F. ) ;
#4 = COORDINATED_UNIVERSAL_TIME_OFFSET ( 1, 0, .AHEAD. ) ;
#5 = EDGE_LOOP ( 'NONE', ( #286 ) ) ;
#6 = PERSON_AND_ORGANIZATION_ROLE ( 'design_supplier' ) ;
#7 = ORIENTED_EDGE ( 'NONE', *, *, #83, .F. ) ;
#8 = MANIFOLD_SOLID_BREP ( 'Corps-Déplacer/Copier1[1]', #17 ) ;
#9 = CC_DESIGN_PERSON_AND_ORGANIZATION_ASSIGNMENT ( #203, #6, ( #263 ) ) ;
#10 = FACE_OUTER_BOUND ( 'NONE', #210, .T. ) ;
#11 = DIRECTION ( 'NONE',  ( 3.491481338843133355E-15, -1.224646799147353207E-16, 1.000000000000000000 ) ) ;
#12 = AXIS2_PLACEMENT_3D ( 'NONE', #15, #80, #81 ) ;
#13 = EDGE_CURVE ( 'NONE', #197, #197, #134, .T. ) ;
#14 = FACE_OUTER_BOUND ( 'NONE', #117, .T. ) ;
#15 = CARTESIAN_POINT ( 'NONE',  ( 2.205791549751542826E-14, -7.736875265340984999E-16, 6.317638090205027979 ) ) ;
#16 = CARTESIAN_POINT ( 'NONE',  ( 1.047444401652940007E-13, 4.499279347985507822E-33, 30.00000000000000000 ) ) ;
#17 = CLOSED_SHELL ( 'NONE', ( #61, #110, #265, #205, #120, #147, #242 ) ) ;
#18 = EDGE_CURVE ( 'NONE', #22, #22, #193, .T. ) ;
#19 = FACE_OUTER_BOUND ( 'NONE', #190, .T. ) ;
#20 = CC_DESIGN_APPROVAL ( #252, ( #244 ) ) ;
#21 = CARTESIAN_POINT ( 'NONE',  ( 1.047444401652940007E-13, 0.5999999999999949818, 30.00000000000000000 ) ) ;
#22 = VERTEX_POINT ( 'NONE', #64 ) ;
#23 = CALENDAR_DATE ( 2021, 17, 12 ) ;
#24 = CC_DESIGN_PERSON_AND_ORGANIZATION_ASSIGNMENT ( #233, #281, ( #220 ) ) ;
#25 = DATE_AND_TIME ( #226, #182 ) ;
#26 = APPROVAL_STATUS ( 'not_yet_approved' ) ;
#27 = ORIENTED_EDGE ( 'NONE', *, *, #301, .F. ) ;
#28 = EDGE_LOOP ( 'NONE', ( #31 ) ) ;
#29 = ORIENTED_EDGE ( 'NONE', *, *, #257, .T. ) ;
#30 = EDGE_CURVE ( 'NONE', #249, #249, #69, .T. ) ;
#31 = ORIENTED_EDGE ( 'NONE', *, *, #18, .F. ) ;
#32 = DIRECTION ( 'NONE',  ( 0.0000000000000000000, -1.000000000000000000, 0.0000000000000000000 ) ) ;
#33 = FACE_OUTER_BOUND ( 'NONE', #121, .T. ) ;
#34 = AXIS2_PLACEMENT_3D ( 'NONE', #164, #49, #280 ) ;
#35 = DIRECTION ( 'NONE',  ( -4.275831445896958607E-31, -1.000000000000000000, -1.224646799147353207E-16 ) ) ;
#36 = CARTESIAN_POINT ( 'NONE',  ( 1.675911042644703695E-14, 4.641756527338439936E-33, 4.799999999999999822 ) ) ;
#37 = APPLICATION_CONTEXT ( 'configuration controlled 3d designs of mechanical parts and assemblies' ) ;
#38 = CARTESIAN_POINT ( 'NONE',  ( 2.025059176529017031E-14, 0.6189999999999993285, 5.799999999999999822 ) ) ;
#39 = AXIS2_PLACEMENT_3D ( 'NONE', #266, #57, #32 ) ;
#40 = DIRECTION ( 'NONE',  ( -3.491481338843133355E-15, 1.224646799147353207E-16, -1.000000000000000000 ) ) ;
#41 = PRODUCT ( '305801', '305801', '', ( #211 ) ) ;
#42 = CARTESIAN_POINT ( 'NONE',  ( 2.205791549751542826E-14, 0.6871483474218590404, 6.317638090205027979 ) ) ;
#43 = AXIS2_PLACEMENT_3D ( 'NONE', #153, #219, #60 ) ;
#44 = DATE_TIME_ROLE ( 'classification_date' ) ;
#45 = CC_DESIGN_APPROVAL ( #200, ( #263 ) ) ;
#46 = PERSON_AND_ORGANIZATION_ROLE ( 'classification_officer' ) ;
#47 = CONICAL_SURFACE ( 'NONE', #177, 0.6189999999999994396, 0.1919862177193692454 ) ;
#48 = DATE_AND_TIME ( #287, #268 ) ;
#49 = DIRECTION ( 'NONE',  ( -3.491481338843133355E-15, 1.224646799147353207E-16, -1.000000000000000000 ) ) ;
#50 = ADVANCED_FACE ( 'NONE', ( #103, #296 ), #258, .T. ) ;
#51 = EDGE_LOOP ( 'NONE', ( #72 ) ) ;
#52 = ORGANIZATION ( 'UNSPECIFIED', 'UNSPECIFIED', '' ) ;
#53 = ORIENTED_EDGE ( 'NONE', *, *, #13, .F. ) ;
#54 = TOROIDAL_SURFACE ( 'NONE', #174, 2.619000000000000217, 2.000000000000000000 ) ;
#55 = CYLINDRICAL_SURFACE ( 'NONE', #43, 0.7499999999999978906 ) ;
#56 = CC_DESIGN_PERSON_AND_ORGANIZATION_ASSIGNMENT ( #230, #46, ( #244 ) ) ;
#57 = DIRECTION ( 'NONE',  ( 3.491481338843133355E-15, -1.224646799147353207E-16, 1.000000000000000000 ) ) ;
#58 = FACE_OUTER_BOUND ( 'NONE', #204, .T. ) ;
#59 = DIRECTION ( 'NONE',  ( 4.275831445896958607E-31, 1.000000000000000000, 1.224646799147353207E-16 ) ) ;
#60 = DIRECTION ( 'NONE',  ( 4.275831445896958607E-31, 1.000000000000000000, 1.224646799147353207E-16 ) ) ;
#61 = ADVANCED_FACE ( 'NONE', ( #151 ), #240, .F. ) ;
#62 = CARTESIAN_POINT ( 'NONE',  ( 1.745740669421566678E-15, 0.6189999999999993285, 0.5000000000000000000 ) ) ;
#63 = CC_DESIGN_SECURITY_CLASSIFICATION ( #244, ( #263 ) ) ;
#64 = CARTESIAN_POINT ( 'NONE',  ( -9.463679131915804593E-32, 0.2500000000000000555, -2.710505431213761085E-17 ) ) ;
#65 = CIRCLE ( 'NONE', #12, 0.6871483474218598175 ) ;
#66 = EDGE_CURVE ( 'NONE', #86, #86, #118, .T. ) ;
#67 = CARTESIAN_POINT ( 'NONE',  ( 1.675911042644703695E-14, 0.6189999999999993285, 4.799999999999999822 ) ) ;
#68 = CARTESIAN_POINT ( 'NONE',  ( 1.675911042644703695E-14, -5.878304635907294211E-16, 4.799999999999999822 ) ) ;
#69 = CIRCLE ( 'NONE', #143, 0.5999999999999986455 ) ;
#70 = CARTESIAN_POINT ( 'NONE',  ( 0.0000000000000000000, 0.0000000000000000000, 0.0000000000000000000 ) ) ;
#71 = DIRECTION ( 'NONE',  ( 1.000000000000000000, 0.0000000000000000000, 0.0000000000000000000 ) ) ;
#72 = ORIENTED_EDGE ( 'NONE', *, *, #237, .T. ) ;
#73 = DIRECTION ( 'NONE',  ( -3.491481338843133355E-15, 1.224646799147353207E-16, -1.000000000000000000 ) ) ;
#74 = APPROVAL_DATE_TIME ( #48, #133 ) ;
#75 = EDGE_LOOP ( 'NONE', ( #96 ) ) ;
#76 = COORDINATED_UNIVERSAL_TIME_OFFSET ( 1, 0, .AHEAD. ) ;
#77 = CARTESIAN_POINT ( 'NONE',  ( 6.171796909708153797E-16, -2.164774947061860335E-17, 0.1767672890313403689 ) ) ;
#78 = EDGE_CURVE ( 'NONE', #298, #298, #65, .T. ) ;
#79 = CONICAL_SURFACE ( 'NONE', #95, 0.5999999999999986455, 0.7853981633974450594 ) ;
#80 = DIRECTION ( 'NONE',  ( -3.491481338843133355E-15, 1.224646799147353207E-16, -1.000000000000000000 ) ) ;
#81 = DIRECTION ( 'NONE',  ( 0.0000000000000000000, 1.000000000000000000, 0.0000000000000000000 ) ) ;
#82 = DIRECTION ( 'NONE',  ( -3.491481338843133355E-15, 1.224646799147353207E-16, -1.000000000000000000 ) ) ;
#83 = EDGE_CURVE ( 'NONE', #224, #224, #183, .T. ) ;
#84 = CIRCLE ( 'NONE', #124, 0.6189999999999998836 ) ;
#85 = PLANE ( 'NONE',  #100 ) ;
#86 = VERTEX_POINT ( 'NONE', #199 ) ;
#87 = VERTEX_POINT ( 'NONE', #38 ) ;
#88 = LOCAL_TIME ( 13, 38, 5.000000000000000000, #4 ) ;
#89 = AXIS2_PLACEMENT_3D ( 'NONE', #16, #91, #109 ) ;
#90 = DIRECTION ( 'NONE',  ( 6.222713875241478515E-31, 1.000000000000000000, 1.751538243110671111E-16 ) ) ;
#91 = DIRECTION ( 'NONE',  ( -3.491481338843133355E-15, 1.224646799147353207E-16, -1.000000000000000000 ) ) ;
#92 = VERTEX_POINT ( 'NONE', #62 ) ;
#93 = DATE_AND_TIME ( #303, #221 ) ;
#94 = CARTESIAN_POINT ( 'NONE',  ( 1.042207179644675275E-13, -3.655570695454848748E-15, 29.84999999999999787 ) ) ;
#95 = AXIS2_PLACEMENT_3D ( 'NONE', #241, #175, #130 ) ;
#96 = ORIENTED_EDGE ( 'NONE', *, *, #78, .F. ) ;
#97 = EDGE_CURVE ( 'NONE', #277, #277, #136, .T. ) ;
#98 = APPROVAL_DATE_TIME ( #25, #200 ) ;
#99 = EDGE_LOOP ( 'NONE', ( #3 ) ) ;
#100 = AXIS2_PLACEMENT_3D ( 'NONE', #36, #170, #291 ) ;
#101 = SECURITY_CLASSIFICATION_LEVEL ( 'unclassified' ) ;
#102 = CARTESIAN_POINT ( 'NONE',  ( 6.171796909708153797E-16, -2.164774947061860335E-17, 0.1767672890313403689 ) ) ;
#103 = FACE_BOUND ( 'NONE', #28, .T. ) ;
#104 = AXIS2_PLACEMENT_3D ( 'NONE', #94, #73, #186 ) ;
#105 = CARTESIAN_POINT ( 'NONE',  ( 1.675911042644703695E-14, -5.878304635907294211E-16, 4.799999999999999822 ) ) ;
#106 = FACE_BOUND ( 'NONE', #75, .T. ) ;
#107 = FACE_OUTER_BOUND ( 'NONE', #253, .T. ) ;
#108 = CC_DESIGN_APPROVAL ( #133, ( #220 ) ) ;
#109 = DIRECTION ( 'NONE',  ( 4.275831445896958607E-31, 1.000000000000000000, 1.224646799147353207E-16 ) ) ;
#110 = ADVANCED_FACE ( 'NONE', ( #10, #33 ), #243, .T. ) ;
#111 = FACE_OUTER_BOUND ( 'NONE', #166, .T. ) ;
#112 = DIRECTION ( 'NONE',  ( 4.390814318394294517E-31, 1.000000000000000000, 1.224646799147353207E-16 ) ) ;
#113 = CARTESIAN_POINT ( 'NONE',  ( 2.025059176529017031E-14, -7.102951435054647665E-16, 5.799999999999999822 ) ) ;
#114 = CC_DESIGN_DATE_AND_TIME_ASSIGNMENT ( #116, #165, ( #220 ) ) ;
#115 = APPROVAL_STATUS ( 'not_yet_approved' ) ;
#116 = DATE_AND_TIME ( #212, #88 ) ;
#117 = EDGE_LOOP ( 'NONE', ( #189 ) ) ;
#118 = CIRCLE ( 'NONE', #169, 0.7499999999999971134 ) ;
#119 = COORDINATED_UNIVERSAL_TIME_OFFSET ( 1, 0, .AHEAD. ) ;
#120 = ADVANCED_FACE ( 'NONE', ( #238, #216 ), #55, .T. ) ;
#121 = EDGE_LOOP ( 'NONE', ( #256 ) ) ;
#122 = COORDINATED_UNIVERSAL_TIME_OFFSET ( 1, 0, .AHEAD. ) ;
#123 = EDGE_LOOP ( 'NONE', ( #232 ) ) ;
#124 = AXIS2_PLACEMENT_3D ( 'NONE', #68, #157, #223 ) ;
#125 = CARTESIAN_POINT ( 'NONE',  ( 1.675911042644703695E-14, 4.641756527338439936E-33, 4.799999999999999822 ) ) ;
#126 = FACE_BOUND ( 'NONE', #5, .T. ) ;
#127 = DIRECTION ( 'NONE',  ( -6.222713875241478515E-31, -1.000000000000000000, -1.751538243110671111E-16 ) ) ;
#128 = AXIS2_PLACEMENT_3D ( 'NONE', #264, #148, #218 ) ;
#129 = CIRCLE ( 'NONE', #299, 0.6190000000000001057 ) ;
#130 = DIRECTION ( 'NONE',  ( 0.0000000000000000000, 1.000000000000000000, 0.0000000000000000000 ) ) ;
#131 = DIRECTION ( 'NONE',  ( 3.462844456933218053E-31, 1.000000000000000000, 1.462056094301852725E-16 ) ) ;
#132 = DIRECTION ( 'NONE',  ( 0.0000000000000000000, 1.000000000000000000, 0.0000000000000000000 ) ) ;
#133 = APPROVAL ( #26, 'UNSPECIFIED' ) ;
#134 = CIRCLE ( 'NONE', #104, 0.7499999999999984457 ) ;
#135 = DIRECTION ( 'NONE',  ( -3.491481338843133355E-15, 1.224646799147353207E-16, -1.000000000000000000 ) ) ;
#136 = CIRCLE ( 'NONE', #250, 0.5561699257184908873 ) ;
#137 = DIRECTION ( 'NONE',  ( -3.491481338843133355E-15, 1.224646799147353207E-16, -1.000000000000000000 ) ) ;
#138 = APPROVAL_ROLE ( '' ) ;
#139 = DESIGN_CONTEXT ( 'detailed design', #273, 'design' ) ;
#140 = APPROVAL_ROLE ( '' ) ;
#141 = APPROVAL_STATUS ( 'not_yet_approved' ) ;
#142 = EDGE_LOOP ( 'NONE', ( #146 ) ) ;
#143 = AXIS2_PLACEMENT_3D ( 'NONE', #144, #295, #293 ) ;
#144 = CARTESIAN_POINT ( 'NONE',  ( 1.047444401652940007E-13, -3.673940397442059178E-15, 30.00000000000000000 ) ) ;
#145 = PERSON_AND_ORGANIZATION ( #288, #52 ) ;
#146 = ORIENTED_EDGE ( 'NONE', *, *, #66, .F. ) ;
#147 = ADVANCED_FACE ( 'NONE', ( #191, #152 ), #79, .T. ) ;
#148 = DIRECTION ( 'NONE',  ( -3.491481338843133355E-15, 1.224646799147353207E-16, -1.000000000000000000 ) ) ;
#149 = CARTESIAN_POINT ( 'NONE',  ( 1.745740669421566283E-15, -6.123233995736764803E-17, 0.4999999999999998890 ) ) ;
#150 = APPROVAL_PERSON_ORGANIZATION ( #207, #252, #138 ) ;
#151 = FACE_OUTER_BOUND ( 'NONE', #236, .T. ) ;
#152 = FACE_BOUND ( 'NONE', #261, .T. ) ;
#153 = CARTESIAN_POINT ( 'NONE',  ( 0.0000000000000000000, 0.0000000000000000000, 0.0000000000000000000 ) ) ;
#154 = VERTEX_POINT ( 'NONE', #245 ) ;
#155 = ADVANCED_FACE ( 'NONE', ( #58 ), #85, .T. ) ;
#156 = PLANE ( 'NONE',  #270 ) ;
#157 = DIRECTION ( 'NONE',  ( -3.491481338843133355E-15, 1.224646799147353207E-16, -1.000000000000000000 ) ) ;
#158 = CARTESIAN_POINT ( 'NONE',  ( -1.007662887332910110E-31, 3.534405628531046841E-33, -2.886061214541072360E-17 ) ) ;
#159 = ORIENTED_EDGE ( 'NONE', *, *, #257, .F. ) ;
#160 = PERSON_AND_ORGANIZATION ( #288, #52 ) ;
#161 = EDGE_LOOP ( 'NONE', ( #284 ) ) ;
#162 =( GEOMETRIC_REPRESENTATION_CONTEXT ( 3 ) GLOBAL_UNCERTAINTY_ASSIGNED_CONTEXT ( ( #255 ) ) GLOBAL_UNIT_ASSIGNED_CONTEXT ( ( #178, #198, #176 ) ) REPRESENTATION_CONTEXT ( 'NONE', 'WORKASPACE' ) );
#163 = APPLICATION_PROTOCOL_DEFINITION ( 'international standard', 'config_control_design', 1994, #37 ) ;
#164 = CARTESIAN_POINT ( 'NONE',  ( -2.015325774665820220E-31, 7.068811257062093682E-33, -5.772122429082144719E-17 ) ) ;
#165 = DATE_TIME_ROLE ( 'creation_date' ) ;
#166 = EDGE_LOOP ( 'NONE', ( #290 ) ) ;
#167 = EDGE_LOOP ( 'NONE', ( #229 ) ) ;
#168 = CYLINDRICAL_SURFACE ( 'NONE', #128, 0.6189999999999996616 ) ;
#169 = AXIS2_PLACEMENT_3D ( 'NONE', #192, #82, #172 ) ;
#170 = DIRECTION ( 'NONE',  ( 3.491481338843133355E-15, -1.224646799147353207E-16, 1.000000000000000000 ) ) ;
#171 = DIRECTION ( 'NONE',  ( 3.491481338843133355E-15, -1.224646799147353207E-16, 1.000000000000000000 ) ) ;
#172 = DIRECTION ( 'NONE',  ( 0.0000000000000000000, 1.000000000000000000, 0.0000000000000000000 ) ) ;
#173 = CIRCLE ( 'NONE', #217, 0.6189999999999994396 ) ;
#174 = AXIS2_PLACEMENT_3D ( 'NONE', #181, #135, #112 ) ;
#175 = DIRECTION ( 'NONE',  ( -3.491481338843133355E-15, 1.224646799147353207E-16, -1.000000000000000000 ) ) ;
#176 =( NAMED_UNIT ( * ) SI_UNIT ( $, .STERADIAN. ) SOLID_ANGLE_UNIT ( ) );
#177 = AXIS2_PLACEMENT_3D ( 'NONE', #149, #239, #127 ) ;
#178 =( LENGTH_UNIT ( ) NAMED_UNIT ( * ) SI_UNIT ( .MILLI., .METRE. ) );
#179 = ADVANCED_FACE ( 'NONE', ( #107, #195 ), #168, .T. ) ;
#180 = DIRECTION ( 'NONE',  ( 3.491481338843133355E-15, -1.224646799147353207E-16, 1.000000000000000000 ) ) ;
#181 = CARTESIAN_POINT ( 'NONE',  ( 2.025059176529017031E-14, -8.673617379884035472E-16, 5.799999999999999822 ) ) ;
#182 = LOCAL_TIME ( 13, 38, 5.000000000000000000, #119 ) ;
#183 = CIRCLE ( 'NONE', #222, 0.6189999999999998836 ) ;
#184 = DATE_AND_TIME ( #23, #276 ) ;
#185 = CC_DESIGN_PERSON_AND_ORGANIZATION_ASSIGNMENT ( #160, #259, ( #41 ) ) ;
#186 = DIRECTION ( 'NONE',  ( 0.0000000000000000000, 1.000000000000000000, 0.0000000000000000000 ) ) ;
#187 = DIRECTION ( 'NONE',  ( 0.0000000000000000000, 0.0000000000000000000, 1.000000000000000000 ) ) ;
#188 = EDGE_LOOP ( 'NONE', ( #234 ) ) ;
#189 = ORIENTED_EDGE ( 'NONE', *, *, #66, .T. ) ;
#190 = EDGE_LOOP ( 'NONE', ( #27 ) ) ;
#191 = FACE_OUTER_BOUND ( 'NONE', #208, .T. ) ;
#192 = CARTESIAN_POINT ( 'NONE',  ( 2.287689677564871546E-14, -8.024135228517492454E-16, 6.552203650966308857 ) ) ;
#193 = CIRCLE ( 'NONE', #34, 0.2500000000000000555 ) ;
#194 = CARTESIAN_POINT ( 'NONE',  ( 0.0000000000000000000, 0.0000000000000000000, 0.0000000000000000000 ) ) ;
#195 = FACE_OUTER_BOUND ( 'NONE', #188, .T. ) ;
#196 = CC_DESIGN_PERSON_AND_ORGANIZATION_ASSIGNMENT ( #145, #251, ( #263 ) ) ;
#197 = VERTEX_POINT ( 'NONE', #297 ) ;
#198 =( NAMED_UNIT ( * ) PLANE_ANGLE_UNIT ( ) SI_UNIT ( $, .RADIAN. ) );
#199 = CARTESIAN_POINT ( 'NONE',  ( 2.287689677564871546E-14, 0.7499999999999963363, 6.552203650966308857 ) ) ;
#200 = APPROVAL ( #115, 'UNSPECIFIED' ) ;
#201 = FACE_OUTER_BOUND ( 'NONE', #99, .T. ) ;
#202 = MANIFOLD_SOLID_BREP ( 'Corps-Déplacer/Copier1[2]', #1 ) ;
#203 = PERSON_AND_ORGANIZATION ( #288, #52 ) ;
#204 = EDGE_LOOP ( 'NONE', ( #7 ) ) ;
#205 = ADVANCED_FACE ( 'NONE', ( #106, #14 ), #235, .T. ) ;
#206 = AXIS2_PLACEMENT_3D ( 'NONE', #194, #269, #59 ) ;
#207 = PERSON_AND_ORGANIZATION ( #288, #52 ) ;
#208 = EDGE_LOOP ( 'NONE', ( #53 ) ) ;
#209 = SHAPE_DEFINITION_REPRESENTATION ( #289, #278 ) ;
#210 = EDGE_LOOP ( 'NONE', ( #159 ) ) ;
#211 = MECHANICAL_CONTEXT ( 'NONE', #37, 'mechanical' ) ;
#212 = CALENDAR_DATE ( 2021, 17, 12 ) ;
#213 = ORIENTED_EDGE ( 'NONE', *, *, #237, .F. ) ;
#214 = DIRECTION ( 'NONE',  ( -3.491481338843133355E-15, 1.224646799147353207E-16, -1.000000000000000000 ) ) ;
#215 = FACE_OUTER_BOUND ( 'NONE', #51, .T. ) ;
#216 = FACE_OUTER_BOUND ( 'NONE', #167, .T. ) ;
#217 = AXIS2_PLACEMENT_3D ( 'NONE', #248, #137, #90 ) ;
#218 = DIRECTION ( 'NONE',  ( 4.275831445896959482E-31, 1.000000000000000000, 1.224646799147353207E-16 ) ) ;
#219 = DIRECTION ( 'NONE',  ( -3.491481338843133355E-15, 1.224646799147353207E-16, -1.000000000000000000 ) ) ;
#220 = PRODUCT_DEFINITION ( 'UNKNOWN', '', #263, #139 ) ;
#221 = LOCAL_TIME ( 13, 38, 5.000000000000000000, #122 ) ;
#222 = AXIS2_PLACEMENT_3D ( 'NONE', #105, #214, #267 ) ;
#223 = DIRECTION ( 'NONE',  ( 0.0000000000000000000, 1.000000000000000000, 0.0000000000000000000 ) ) ;
#224 = VERTEX_POINT ( 'NONE', #67 ) ;
#225 = COORDINATED_UNIVERSAL_TIME_OFFSET ( 1, 0, .AHEAD. ) ;
#226 = CALENDAR_DATE ( 2021, 17, 12 ) ;
#227 = APPROVAL_PERSON_ORGANIZATION ( #260, #133, #285 ) ;
#228 = PERSON_AND_ORGANIZATION ( #288, #52 ) ;
#229 = ORIENTED_EDGE ( 'NONE', *, *, #13, .T. ) ;
#230 = PERSON_AND_ORGANIZATION ( #288, #52 ) ;
#231 = ADVANCED_FACE ( 'NONE', ( #126, #215 ), #47, .T. ) ;
#232 = ORIENTED_EDGE ( 'NONE', *, *, #97, .T. ) ;
#233 = PERSON_AND_ORGANIZATION ( #288, #52 ) ;
#234 = ORIENTED_EDGE ( 'NONE', *, *, #83, .T. ) ;
#235 = CONICAL_SURFACE ( 'NONE', #39, 0.7499999999999971134, 0.2617993877991438012 ) ;
#236 = EDGE_LOOP ( 'NONE', ( #29 ) ) ;
#237 = EDGE_CURVE ( 'NONE', #92, #92, #173, .T. ) ;
#238 = FACE_OUTER_BOUND ( 'NONE', #142, .T. ) ;
#239 = DIRECTION ( 'NONE',  ( 3.491481338843133355E-15, -1.224646799147353207E-16, 1.000000000000000000 ) ) ;
#240 = PLANE ( 'NONE',  #246 ) ;
#241 = CARTESIAN_POINT ( 'NONE',  ( 1.047444401652940007E-13, -3.673940397442059178E-15, 30.00000000000000000 ) ) ;
#242 = ADVANCED_FACE ( 'NONE', ( #201 ), #300, .F. ) ;
#243 = CYLINDRICAL_SURFACE ( 'NONE', #206, 0.6189999999999999947 ) ;
#244 = SECURITY_CLASSIFICATION ( '', '', #101 ) ;
#245 = CARTESIAN_POINT ( 'NONE',  ( 1.675911042644703695E-14, 0.6189999999999993285, 4.799999999999999822 ) ) ;
#246 = AXIS2_PLACEMENT_3D ( 'NONE', #125, #171, #35 ) ;
#247 = FACE_OUTER_BOUND ( 'NONE', #161, .T. ) ;
#248 = CARTESIAN_POINT ( 'NONE',  ( 1.745740669421566283E-15, -6.123233995736764803E-17, 0.4999999999999998890 ) ) ;
#249 = VERTEX_POINT ( 'NONE', #21 ) ;
#250 = AXIS2_PLACEMENT_3D ( 'NONE', #102, #292, #131 ) ;
#251 = PERSON_AND_ORGANIZATION_ROLE ( 'creator' ) ;
#252 = APPROVAL ( #141, 'UNSPECIFIED' ) ;
#253 = EDGE_LOOP ( 'NONE', ( #213 ) ) ;
#254 = APPLICATION_PROTOCOL_DEFINITION ( 'international standard', 'config_control_design', 1994, #273 ) ;
#255 = UNCERTAINTY_MEASURE_WITH_UNIT (LENGTH_MEASURE( 1.000000000000000082E-05 ), #178, 'distance_accuracy_value', 'NONE');
#256 = ORIENTED_EDGE ( 'NONE', *, *, #301, .T. ) ;
#257 = EDGE_CURVE ( 'NONE', #154, #154, #84, .T. ) ;
#258 = CONICAL_SURFACE ( 'NONE', #274, 0.5561699257184908873, 1.047197551196592746 ) ;
#259 = PERSON_AND_ORGANIZATION_ROLE ( 'design_owner' ) ;
#260 = PERSON_AND_ORGANIZATION ( #288, #52 ) ;
#261 = EDGE_LOOP ( 'NONE', ( #262 ) ) ;
#262 = ORIENTED_EDGE ( 'NONE', *, *, #30, .T. ) ;
#263 = PRODUCT_DEFINITION_FORMATION_WITH_SPECIFIED_SOURCE ( 'ANY', '', #41, .NOT_KNOWN. ) ;
#264 = CARTESIAN_POINT ( 'NONE',  ( 0.0000000000000000000, 0.0000000000000000000, 0.0000000000000000000 ) ) ;
#265 = ADVANCED_FACE ( 'NONE', ( #19, #247 ), #54, .F. ) ;
#266 = CARTESIAN_POINT ( 'NONE',  ( 2.287689677564871546E-14, -8.024135228517492454E-16, 6.552203650966308857 ) ) ;
#267 = DIRECTION ( 'NONE',  ( 0.0000000000000000000, 1.000000000000000000, 0.0000000000000000000 ) ) ;
#268 = LOCAL_TIME ( 13, 38, 5.000000000000000000, #76 ) ;
#269 = DIRECTION ( 'NONE',  ( -3.491481338843133355E-15, 1.224646799147353207E-16, -1.000000000000000000 ) ) ;
#270 = AXIS2_PLACEMENT_3D ( 'NONE', #158, #180, #275 ) ;
#271 = DIRECTION ( 'NONE',  ( -3.462844456933218053E-31, -1.000000000000000000, -1.462056094301852725E-16 ) ) ;
#272 = AXIS2_PLACEMENT_3D ( 'NONE', #70, #187, #71 ) ;
#273 = APPLICATION_CONTEXT ( 'configuration controlled 3d designs of mechanical parts and assemblies' ) ;
#274 = AXIS2_PLACEMENT_3D ( 'NONE', #77, #11, #271 ) ;
#275 = DIRECTION ( 'NONE',  ( -4.275831445896958607E-31, -1.000000000000000000, -1.224646799147353207E-16 ) ) ;
#276 = LOCAL_TIME ( 13, 38, 5.000000000000000000, #225 ) ;
#277 = VERTEX_POINT ( 'NONE', #302 ) ;
#278 = ADVANCED_BREP_SHAPE_REPRESENTATION ( '305801', ( #8, #202, #272 ), #162 ) ;
#279 = APPROVAL_DATE_TIME ( #184, #252 ) ;
#280 = DIRECTION ( 'NONE',  ( 4.275831445896958607E-31, 1.000000000000000000, 1.224646799147353207E-16 ) ) ;
#281 = PERSON_AND_ORGANIZATION_ROLE ( 'creator' ) ;
#282 = ADVANCED_FACE ( 'NONE', ( #111 ), #156, .F. ) ;
#283 = APPROVAL_PERSON_ORGANIZATION ( #228, #200, #140 ) ;
#284 = ORIENTED_EDGE ( 'NONE', *, *, #78, .T. ) ;
#285 = APPROVAL_ROLE ( '' ) ;
#286 = ORIENTED_EDGE ( 'NONE', *, *, #97, .F. ) ;
#287 = CALENDAR_DATE ( 2021, 17, 12 ) ;
#288 = PERSON ( 'UNSPECIFIED', 'UNSPECIFIED', 'UNSPECIFIED', ('UNSPECIFIED'), ('UNSPECIFIED'), ('UNSPECIFIED') ) ;
#289 = PRODUCT_DEFINITION_SHAPE ( 'NONE', 'NONE',  #220 ) ;
#290 = ORIENTED_EDGE ( 'NONE', *, *, #18, .T. ) ;
#291 = DIRECTION ( 'NONE',  ( -4.275831445896958607E-31, -1.000000000000000000, -1.224646799147353207E-16 ) ) ;
#292 = DIRECTION ( 'NONE',  ( -3.491481338843133355E-15, 1.224646799147353207E-16, -1.000000000000000000 ) ) ;
#293 = DIRECTION ( 'NONE',  ( 0.0000000000000000000, 1.000000000000000000, 0.0000000000000000000 ) ) ;
#294 = CC_DESIGN_DATE_AND_TIME_ASSIGNMENT ( #93, #44, ( #244 ) ) ;
#295 = DIRECTION ( 'NONE',  ( -3.491481338843133355E-15, 1.224646799147353207E-16, -1.000000000000000000 ) ) ;
#296 = FACE_OUTER_BOUND ( 'NONE', #123, .T. ) ;
#297 = CARTESIAN_POINT ( 'NONE',  ( 1.042207179644675275E-13, 0.7499999999999947820, 29.84999999999999787 ) ) ;
#298 = VERTEX_POINT ( 'NONE', #42 ) ;
#299 = AXIS2_PLACEMENT_3D ( 'NONE', #113, #40, #132 ) ;
#300 = PLANE ( 'NONE',  #89 ) ;
#301 = EDGE_CURVE ( 'NONE', #87, #87, #129, .T. ) ;
#302 = CARTESIAN_POINT ( 'NONE',  ( 6.171796909708155769E-16, 0.5561699257184908873, 0.1767672890313404521 ) ) ;
#303 = CALENDAR_DATE ( 2021, 17, 12 ) ;
ENDSEC;
END-ISO-10303-21;
