ISO-10303-21;
HEADER;
FILE_DESCRIPTION (( 'STEP AP203' ),
    '1' );
FILE_NAME ('305800.step',
    '2021-12-17T12:38:05',
    ( '' ),
    ( '' ),
    'SwSTEP 2.0',
    'SolidWorks 2019',
    '' );
FILE_SCHEMA (( 'CONFIG_CONTROL_DESIGN' ));
ENDSEC;

DATA;
#1 = CARTESIAN_POINT ( 'NONE',  ( 1.042207179644675275E-13, 0.7499999999999947820, 29.84999999999999787 ) ) ;
#2 = LOCAL_TIME ( 13, 38, 5.000000000000000000, #179 ) ;
#3 = CARTESIAN_POINT ( 'NONE',  ( 6.533690680643567862E-16, 0.5741227181687722503, 0.1871323385852160792 ) ) ;
#4 = CARTESIAN_POINT ( 'NONE',  ( 1.396592535537253342E-15, -4.898587196589413075E-17, 0.4000000000000000222 ) ) ;
#5 = EDGE_LOOP ( 'NONE', ( #174 ) ) ;
#6 = DIRECTION ( 'NONE',  ( -3.491481338843133355E-15, 1.224646799147353207E-16, -1.000000000000000000 ) ) ;
#7 = CIRCLE ( 'NONE', #184, 0.2500000000000000555 ) ;
#8 = PRODUCT_DEFINITION_FORMATION_WITH_SPECIFIED_SOURCE ( 'ANY', '', #275, .NOT_KNOWN. ) ;
#9 = EDGE_LOOP ( 'NONE', ( #193 ) ) ;
#10 = DIRECTION ( 'NONE',  ( -3.491481338843133355E-15, 1.224646799147353207E-16, -1.000000000000000000 ) ) ;
#11 = CC_DESIGN_PERSON_AND_ORGANIZATION_ASSIGNMENT ( #116, #220, ( #195 ) ) ;
#12 = CARTESIAN_POINT ( 'NONE',  ( 1.675911042644703695E-14, -5.878304635907294211E-16, 4.799999999999999822 ) ) ;
#13 = DATE_AND_TIME ( #187, #255 ) ;
#14 = DIRECTION ( 'NONE',  ( 0.0000000000000000000, 1.000000000000000000, 0.0000000000000000000 ) ) ;
#15 = AXIS2_PLACEMENT_3D ( 'NONE', #4, #236, #192 ) ;
#16 = PRODUCT_RELATED_PRODUCT_CATEGORY ( 'detail', '', ( #275 ) ) ;
#17 = DATE_TIME_ROLE ( 'classification_date' ) ;
#18 = UNCERTAINTY_MEASURE_WITH_UNIT (LENGTH_MEASURE( 1.000000000000000082E-05 ), #30, 'distance_accuracy_value', 'NONE');
#19 = DIRECTION ( 'NONE',  ( 0.0000000000000000000, 1.000000000000000000, 0.0000000000000000000 ) ) ;
#20 = PERSON_AND_ORGANIZATION ( #90, #22 ) ;
#21 = CARTESIAN_POINT ( 'NONE',  ( 2.222420685800594152E-14, -7.795202422953129290E-16, 6.365265828792802338 ) ) ;
#22 = ORGANIZATION ( 'UNSPECIFIED', 'UNSPECIFIED', '' ) ;
#23 = EDGE_CURVE ( 'NONE', #263, #263, #177, .T. ) ;
#24 = AXIS2_PLACEMENT_3D ( 'NONE', #156, #199, #243 ) ;
#25 = CIRCLE ( 'NONE', #204, 0.7499999999999984457 ) ;
#26 = EDGE_CURVE ( 'NONE', #288, #288, #303, .T. ) ;
#27 = EDGE_LOOP ( 'NONE', ( #139 ) ) ;
#28 = DIRECTION ( 'NONE',  ( -4.275831445896958607E-31, -1.000000000000000000, -1.224646799147353207E-16 ) ) ;
#29 = EDGE_LOOP ( 'NONE', ( #170 ) ) ;
#30 =( LENGTH_UNIT ( ) NAMED_UNIT ( * ) SI_UNIT ( .MILLI., .METRE. ) );
#31 = ADVANCED_FACE ( 'NONE', ( #182 ), #110, .F. ) ;
#32 = ORIENTED_EDGE ( 'NONE', *, *, #132, .F. ) ;
#33 = CARTESIAN_POINT ( 'NONE',  ( 1.396592535537253539E-15, 0.6154999999999993809, 0.4000000000000000777 ) ) ;
#34 = PRODUCT_DEFINITION ( 'UNKNOWN', '', #8, #211 ) ;
#35 = APPROVAL_PERSON_ORGANIZATION ( #138, #296, #206 ) ;
#36 = CARTESIAN_POINT ( 'NONE',  ( 2.222420685800594152E-14, 0.7499999999999963363, 6.365265828792802338 ) ) ;
#37 = CARTESIAN_POINT ( 'NONE',  ( 6.484809607523559946E-32, -2.274565022181988700E-33, 1.857323290083009539E-17 ) ) ;
#38 = MECHANICAL_CONTEXT ( 'NONE', #233, 'mechanical' ) ;
#39 = ADVANCED_FACE ( 'NONE', ( #272, #205 ), #169, .T. ) ;
#40 = FACE_BOUND ( 'NONE', #281, .T. ) ;
#41 = COORDINATED_UNIVERSAL_TIME_OFFSET ( 1, 0, .AHEAD. ) ;
#42 = AXIS2_PLACEMENT_3D ( 'NONE', #95, #186, #225 ) ;
#43 = CARTESIAN_POINT ( 'NONE',  ( 1.047444401652940007E-13, 4.499279347985507822E-33, 30.00000000000000000 ) ) ;
#44 = PERSON_AND_ORGANIZATION_ROLE ( 'design_owner' ) ;
#45 = CARTESIAN_POINT ( 'NONE',  ( 1.396592535537253342E-15, -4.898587196589413075E-17, 0.4000000000000000222 ) ) ;
#46 = CALENDAR_DATE ( 2021, 17, 12 ) ;
#47 = CYLINDRICAL_SURFACE ( 'NONE', #159, 0.6154999999999999361 ) ;
#48 = DIRECTION ( 'NONE',  ( 0.0000000000000000000, 1.000000000000000000, 0.0000000000000000000 ) ) ;
#49 = MANIFOLD_SOLID_BREP ( 'Corps-Déplacer/Copier1[1]', #299 ) ;
#50 = PRODUCT_DEFINITION_SHAPE ( 'NONE', 'NONE',  #34 ) ;
#51 = APPROVAL_PERSON_ORGANIZATION ( #300, #231, #155 ) ;
#52 = CARTESIAN_POINT ( 'NONE',  ( 1.675911042644703695E-14, 4.615510731141858468E-33, 4.799999999999999822 ) ) ;
#53 = DIRECTION ( 'NONE',  ( -3.491481338843133355E-15, 1.224646799147353207E-16, -1.000000000000000000 ) ) ;
#54 = EDGE_LOOP ( 'NONE', ( #260 ) ) ;
#55 = DIRECTION ( 'NONE',  ( 4.275831445896958607E-31, 1.000000000000000000, 1.224646799147353207E-16 ) ) ;
#56 = ADVANCED_FACE ( 'NONE', ( #160, #133 ), #203, .F. ) ;
#57 = DIRECTION ( 'NONE',  ( 0.0000000000000000000, 1.000000000000000000, 0.0000000000000000000 ) ) ;
#58 = EDGE_LOOP ( 'NONE', ( #32 ) ) ;
#59 = DIRECTION ( 'NONE',  ( -3.491481338843133355E-15, 1.224646799147353207E-16, -1.000000000000000000 ) ) ;
#60 = AXIS2_PLACEMENT_3D ( 'NONE', #71, #294, #88 ) ;
#61 = DIRECTION ( 'NONE',  ( -3.491481338843133355E-15, 1.224646799147353207E-16, -1.000000000000000000 ) ) ;
#62 = PERSON_AND_ORGANIZATION_ROLE ( 'creator' ) ;
#63 = CC_DESIGN_PERSON_AND_ORGANIZATION_ASSIGNMENT ( #20, #131, ( #8 ) ) ;
#64 = CYLINDRICAL_SURFACE ( 'NONE', #24, 0.6154999999999997140 ) ;
#65 = PERSON_AND_ORGANIZATION_ROLE ( 'creator' ) ;
#66 = DIRECTION ( 'NONE',  ( 4.275831445896957731E-31, 1.000000000000000000, 1.224646799147353207E-16 ) ) ;
#67 =( NAMED_UNIT ( * ) SI_UNIT ( $, .STERADIAN. ) SOLID_ANGLE_UNIT ( ) );
#68 = APPLICATION_CONTEXT ( 'configuration controlled 3d designs of mechanical parts and assemblies' ) ;
#69 = CONICAL_SURFACE ( 'NONE', #77, 0.5999999999999986455, 0.7853981633974450594 ) ;
#70 = AXIS2_PLACEMENT_3D ( 'NONE', #162, #239, #108 ) ;
#71 = CARTESIAN_POINT ( 'NONE',  ( 1.675911042644703695E-14, -5.878304635907294211E-16, 4.799999999999999822 ) ) ;
#72 = APPROVAL_DATE_TIME ( #273, #267 ) ;
#73 = FACE_OUTER_BOUND ( 'NONE', #5, .T. ) ;
#74 = DATE_TIME_ROLE ( 'creation_date' ) ;
#75 = CC_DESIGN_PERSON_AND_ORGANIZATION_ASSIGNMENT ( #248, #65, ( #34 ) ) ;
#76 = PLANE ( 'NONE',  #70 ) ;
#77 = AXIS2_PLACEMENT_3D ( 'NONE', #135, #223, #14 ) ;
#78 = AXIS2_PLACEMENT_3D ( 'NONE', #258, #6, #57 ) ;
#79 = ADVANCED_FACE ( 'NONE', ( #73, #207 ), #47, .T. ) ;
#80 = DIRECTION ( 'NONE',  ( 0.0000000000000000000, 1.000000000000000000, 0.0000000000000000000 ) ) ;
#81 = CARTESIAN_POINT ( 'NONE',  ( 1.955229549752154679E-14, -6.858022075225177566E-16, 5.599999999999999645 ) ) ;
#82 = CC_DESIGN_APPROVAL ( #296, ( #34 ) ) ;
#83 = DIRECTION ( 'NONE',  ( 0.0000000000000000000, 1.000000000000000000, 0.0000000000000000000 ) ) ;
#84 = VERTEX_POINT ( 'NONE', #175 ) ;
#85 = PERSON_AND_ORGANIZATION ( #90, #22 ) ;
#86 = CC_DESIGN_PERSON_AND_ORGANIZATION_ASSIGNMENT ( #295, #62, ( #8 ) ) ;
#87 = ORIENTED_EDGE ( 'NONE', *, *, #23, .T. ) ;
#88 = DIRECTION ( 'NONE',  ( 0.0000000000000000000, 1.000000000000000000, 0.0000000000000000000 ) ) ;
#89 = CALENDAR_DATE ( 2021, 17, 12 ) ;
#90 = PERSON ( 'UNSPECIFIED', 'UNSPECIFIED', 'UNSPECIFIED', ('UNSPECIFIED'), ('UNSPECIFIED'), ('UNSPECIFIED') ) ;
#91 = FACE_OUTER_BOUND ( 'NONE', #103, .T. ) ;
#92 = ADVANCED_FACE ( 'NONE', ( #292, #268 ), #64, .T. ) ;
#93 = ADVANCED_FACE ( 'NONE', ( #91, #40 ), #69, .T. ) ;
#94 = CIRCLE ( 'NONE', #259, 0.5741227181687722503 ) ;
#95 = CARTESIAN_POINT ( 'NONE',  ( 6.533690680643564904E-16, -2.291710194653435293E-17, 0.1871323385852159960 ) ) ;
#96 = FACE_OUTER_BOUND ( 'NONE', #27, .T. ) ;
#97 = CIRCLE ( 'NONE', #122, 0.6155000000000000471 ) ;
#98 = DIRECTION ( 'NONE',  ( 5.031842191849336187E-31, 1.000000000000000000, 1.416337663762488144E-16 ) ) ;
#99 = LOCAL_TIME ( 13, 38, 5.000000000000000000, #41 ) ;
#100 = ORIENTED_EDGE ( 'NONE', *, *, #26, .F. ) ;
#101 = CARTESIAN_POINT ( 'NONE',  ( 1.042207179644675275E-13, -3.655570695454848748E-15, 29.84999999999999787 ) ) ;
#102 = FACE_OUTER_BOUND ( 'NONE', #178, .T. ) ;
#103 = EDGE_LOOP ( 'NONE', ( #151 ) ) ;
#104 = CARTESIAN_POINT ( 'NONE',  ( 1.955229549752154679E-14, 0.6154999999999993809, 5.599999999999999645 ) ) ;
#105 = CIRCLE ( 'NONE', #60, 0.6154999999999999361 ) ;
#106 = CONICAL_SURFACE ( 'NONE', #15, 0.6154999999999993809, 0.1919862177193684682 ) ;
#107 = ORIENTED_EDGE ( 'NONE', *, *, #23, .F. ) ;
#108 = DIRECTION ( 'NONE',  ( -4.275831445896958607E-31, -1.000000000000000000, -1.224646799147353207E-16 ) ) ;
#109 = DIRECTION ( 'NONE',  ( -3.491481338843133355E-15, 1.224646799147353207E-16, -1.000000000000000000 ) ) ;
#110 = PLANE ( 'NONE',  #144 ) ;
#111 = APPROVAL_DATE_TIME ( #13, #231 ) ;
#112 = EDGE_LOOP ( 'NONE', ( #214 ) ) ;
#113 = DATE_AND_TIME ( #46, #99 ) ;
#114 = ORIENTED_EDGE ( 'NONE', *, *, #132, .T. ) ;
#115 = DIRECTION ( 'NONE',  ( -3.491481338843133355E-15, 1.224646799147353207E-16, -1.000000000000000000 ) ) ;
#116 = PERSON_AND_ORGANIZATION ( #90, #22 ) ;
#117 = FACE_OUTER_BOUND ( 'NONE', #112, .T. ) ;
#118 = EDGE_CURVE ( 'NONE', #84, #84, #105, .T. ) ;
#119 = EDGE_CURVE ( 'NONE', #190, #190, #7, .T. ) ;
#120 = EDGE_LOOP ( 'NONE', ( #219 ) ) ;
#121 = CARTESIAN_POINT ( 'NONE',  ( 1.675911042644703695E-14, 0.6154999999999993809, 4.799999999999999822 ) ) ;
#122 = AXIS2_PLACEMENT_3D ( 'NONE', #81, #10, #146 ) ;
#123 = ADVANCED_FACE ( 'NONE', ( #157 ), #245, .F. ) ;
#124 = CC_DESIGN_PERSON_AND_ORGANIZATION_ASSIGNMENT ( #85, #44, ( #275 ) ) ;
#125 = DIRECTION ( 'NONE',  ( -3.491481338843133355E-15, 1.224646799147353207E-16, -1.000000000000000000 ) ) ;
#126 = ORIENTED_EDGE ( 'NONE', *, *, #221, .F. ) ;
#127 = ORIENTED_EDGE ( 'NONE', *, *, #276, .F. ) ;
#128 = DIRECTION ( 'NONE',  ( 3.491481338843133355E-15, -1.224646799147353207E-16, 1.000000000000000000 ) ) ;
#129 = LOCAL_TIME ( 13, 38, 5.000000000000000000, #242 ) ;
#130 = EDGE_LOOP ( 'NONE', ( #107 ) ) ;
#131 = PERSON_AND_ORGANIZATION_ROLE ( 'design_supplier' ) ;
#132 = EDGE_CURVE ( 'NONE', #282, #282, #165, .T. ) ;
#133 = FACE_OUTER_BOUND ( 'NONE', #149, .T. ) ;
#134 = CALENDAR_DATE ( 2021, 17, 12 ) ;
#135 = CARTESIAN_POINT ( 'NONE',  ( 1.047444401652940007E-13, -3.673940397442059178E-15, 30.00000000000000000 ) ) ;
#136 =( GEOMETRIC_REPRESENTATION_CONTEXT ( 3 ) GLOBAL_UNCERTAINTY_ASSIGNED_CONTEXT ( ( #18 ) ) GLOBAL_UNIT_ASSIGNED_CONTEXT ( ( #30, #196, #67 ) ) REPRESENTATION_CONTEXT ( 'NONE', 'WORKASPACE' ) );
#137 = CARTESIAN_POINT ( 'NONE',  ( 1.955229549752154679E-14, -8.673617379884035472E-16, 5.599999999999999645 ) ) ;
#138 = PERSON_AND_ORGANIZATION ( #90, #22 ) ;
#139 = ORIENTED_EDGE ( 'NONE', *, *, #221, .T. ) ;
#140 = CARTESIAN_POINT ( 'NONE',  ( 0.0000000000000000000, 0.0000000000000000000, 0.0000000000000000000 ) ) ;
#141 = CARTESIAN_POINT ( 'NONE',  ( 0.0000000000000000000, 0.0000000000000000000, 0.0000000000000000000 ) ) ;
#142 = AXIS2_PLACEMENT_3D ( 'NONE', #251, #210, #48 ) ;
#143 = ADVANCED_FACE ( 'NONE', ( #302, #96 ), #212, .T. ) ;
#144 = AXIS2_PLACEMENT_3D ( 'NONE', #37, #290, #222 ) ;
#145 = AXIS2_PLACEMENT_3D ( 'NONE', #153, #265, #55 ) ;
#146 = DIRECTION ( 'NONE',  ( 0.0000000000000000000, 1.000000000000000000, 0.0000000000000000000 ) ) ;
#147 = MANIFOLD_SOLID_BREP ( 'Corps-Déplacer/Copier1[2]', #163 ) ;
#148 = AXIS2_PLACEMENT_3D ( 'NONE', #173, #53, #80 ) ;
#149 = EDGE_LOOP ( 'NONE', ( #114 ) ) ;
#150 = CARTESIAN_POINT ( 'NONE',  ( 6.533690680643564904E-16, -2.291710194653435293E-17, 0.1871323385852159960 ) ) ;
#151 = ORIENTED_EDGE ( 'NONE', *, *, #230, .F. ) ;
#152 = EDGE_LOOP ( 'NONE', ( #197 ) ) ;
#153 = CARTESIAN_POINT ( 'NONE',  ( 0.0000000000000000000, 0.0000000000000000000, 0.0000000000000000000 ) ) ;
#154 = DIRECTION ( 'NONE',  ( 3.129049462854975921E-31, 1.000000000000000000, 8.807491246835950138E-17 ) ) ;
#155 = APPROVAL_ROLE ( '' ) ;
#156 = CARTESIAN_POINT ( 'NONE',  ( 0.0000000000000000000, 0.0000000000000000000, 0.0000000000000000000 ) ) ;
#157 = FACE_OUTER_BOUND ( 'NONE', #168, .T. ) ;
#158 = DIRECTION ( 'NONE',  ( 0.0000000000000000000, 0.0000000000000000000, 1.000000000000000000 ) ) ;
#159 = AXIS2_PLACEMENT_3D ( 'NONE', #141, #109, #297 ) ;
#160 = FACE_OUTER_BOUND ( 'NONE', #152, .T. ) ;
#161 = SECURITY_CLASSIFICATION_LEVEL ( 'unclassified' ) ;
#162 = CARTESIAN_POINT ( 'NONE',  ( 1.675911042644703695E-14, 4.615510731141858468E-33, 4.799999999999999822 ) ) ;
#163 = CLOSED_SHELL ( 'NONE', ( #31, #39, #279, #92, #228 ) ) ;
#164 = CIRCLE ( 'NONE', #148, 0.7499999999999971134 ) ;
#165 = CIRCLE ( 'NONE', #142, 0.6836483474218607581 ) ;
#166 = CARTESIAN_POINT ( 'NONE',  ( 2.135961922974680159E-14, 0.6836483474218599810, 6.117638090205027801 ) ) ;
#167 = ADVANCED_FACE ( 'NONE', ( #117 ), #76, .F. ) ;
#168 = EDGE_LOOP ( 'NONE', ( #127 ) ) ;
#169 = CONICAL_SURFACE ( 'NONE', #42, 0.5741227181687722503, 1.047197551196592746 ) ;
#170 = ORIENTED_EDGE ( 'NONE', *, *, #252, .T. ) ;
#171 = CARTESIAN_POINT ( 'NONE',  ( 2.365919782978951860E-31, 0.2500000000000000555, 6.776263578034402713E-17 ) ) ;
#172 = ORIENTED_EDGE ( 'NONE', *, *, #119, .F. ) ;
#173 = CARTESIAN_POINT ( 'NONE',  ( 2.222420685800594152E-14, -7.795202422953129290E-16, 6.365265828792802338 ) ) ;
#174 = ORIENTED_EDGE ( 'NONE', *, *, #118, .F. ) ;
#175 = CARTESIAN_POINT ( 'NONE',  ( 1.675911042644703695E-14, 0.6154999999999993809, 4.799999999999999822 ) ) ;
#176 = APPROVAL_STATUS ( 'not_yet_approved' ) ;
#177 = CIRCLE ( 'NONE', #253, 0.6154999999999993809 ) ;
#178 = EDGE_LOOP ( 'NONE', ( #126 ) ) ;
#179 = COORDINATED_UNIVERSAL_TIME_OFFSET ( 1, 0, .AHEAD. ) ;
#180 = CARTESIAN_POINT ( 'NONE',  ( 1.296961921504711989E-31, -4.549130044363977399E-33, 3.714646580166019078E-17 ) ) ;
#181 = APPROVAL_STATUS ( 'not_yet_approved' ) ;
#182 = FACE_OUTER_BOUND ( 'NONE', #9, .T. ) ;
#183 = APPLICATION_PROTOCOL_DEFINITION ( 'international standard', 'config_control_design', 1994, #68 ) ;
#184 = AXIS2_PLACEMENT_3D ( 'NONE', #180, #270, #66 ) ;
#185 = LOCAL_TIME ( 13, 38, 5.000000000000000000, #224 ) ;
#186 = DIRECTION ( 'NONE',  ( 3.491481338843133355E-15, -1.224646799147353207E-16, 1.000000000000000000 ) ) ;
#187 = CALENDAR_DATE ( 2021, 17, 12 ) ;
#188 = DIRECTION ( 'NONE',  ( 0.0000000000000000000, -1.000000000000000000, 0.0000000000000000000 ) ) ;
#189 = AXIS2_PLACEMENT_3D ( 'NONE', #12, #61, #19 ) ;
#190 = VERTEX_POINT ( 'NONE', #171 ) ;
#191 = EDGE_LOOP ( 'NONE', ( #100 ) ) ;
#192 = DIRECTION ( 'NONE',  ( -3.129049462854975921E-31, -1.000000000000000000, -8.807491246835950138E-17 ) ) ;
#193 = ORIENTED_EDGE ( 'NONE', *, *, #119, .T. ) ;
#194 = EDGE_LOOP ( 'NONE', ( #87 ) ) ;
#195 = SECURITY_CLASSIFICATION ( '', '', #161 ) ;
#196 =( NAMED_UNIT ( * ) PLANE_ANGLE_UNIT ( ) SI_UNIT ( $, .RADIAN. ) );
#197 = ORIENTED_EDGE ( 'NONE', *, *, #209, .F. ) ;
#198 = PLANE ( 'NONE',  #274 ) ;
#199 = DIRECTION ( 'NONE',  ( -3.491481338843133355E-15, 1.224646799147353207E-16, -1.000000000000000000 ) ) ;
#200 = APPROVAL_ROLE ( '' ) ;
#201 = DIRECTION ( 'NONE',  ( -3.491481338843133355E-15, 1.224646799147353207E-16, -1.000000000000000000 ) ) ;
#202 = DATE_AND_TIME ( #134, #2 ) ;
#203 = TOROIDAL_SURFACE ( 'NONE', #232, 2.615500000000000380, 2.000000000000000000 ) ;
#204 = AXIS2_PLACEMENT_3D ( 'NONE', #101, #59, #83 ) ;
#205 = FACE_OUTER_BOUND ( 'NONE', #29, .T. ) ;
#206 = APPROVAL_ROLE ( '' ) ;
#207 = FACE_OUTER_BOUND ( 'NONE', #257, .T. ) ;
#208 = CC_DESIGN_SECURITY_CLASSIFICATION ( #195, ( #8 ) ) ;
#209 = EDGE_CURVE ( 'NONE', #240, #240, #97, .T. ) ;
#210 = DIRECTION ( 'NONE',  ( -3.491481338843133355E-15, 1.224646799147353207E-16, -1.000000000000000000 ) ) ;
#211 = DESIGN_CONTEXT ( 'detailed design', #68, 'design' ) ;
#212 = CONICAL_SURFACE ( 'NONE', #287, 0.7499999999999971134, 0.2617993877991390272 ) ;
#213 = VERTEX_POINT ( 'NONE', #1 ) ;
#214 = ORIENTED_EDGE ( 'NONE', *, *, #118, .T. ) ;
#215 = FACE_OUTER_BOUND ( 'NONE', #191, .T. ) ;
#216 = FACE_OUTER_BOUND ( 'NONE', #194, .T. ) ;
#217 = EDGE_LOOP ( 'NONE', ( #237 ) ) ;
#218 = CYLINDRICAL_SURFACE ( 'NONE', #145, 0.7499999999999978906 ) ;
#219 = ORIENTED_EDGE ( 'NONE', *, *, #26, .T. ) ;
#220 = PERSON_AND_ORGANIZATION_ROLE ( 'classification_officer' ) ;
#221 = EDGE_CURVE ( 'NONE', #261, #261, #164, .T. ) ;
#222 = DIRECTION ( 'NONE',  ( -4.275831445896958607E-31, -1.000000000000000000, -1.224646799147353207E-16 ) ) ;
#223 = DIRECTION ( 'NONE',  ( -3.491481338843133355E-15, 1.224646799147353207E-16, -1.000000000000000000 ) ) ;
#224 = COORDINATED_UNIVERSAL_TIME_OFFSET ( 1, 0, .AHEAD. ) ;
#225 = DIRECTION ( 'NONE',  ( -5.031842191849336187E-31, -1.000000000000000000, -1.416337663762488144E-16 ) ) ;
#226 = SHAPE_DEFINITION_REPRESENTATION ( #50, #234 ) ;
#227 = APPLICATION_PROTOCOL_DEFINITION ( 'international standard', 'config_control_design', 1994, #233 ) ;
#228 = ADVANCED_FACE ( 'NONE', ( #215 ), #198, .T. ) ;
#229 = DIRECTION ( 'NONE',  ( 3.491481338843133355E-15, -1.224646799147353207E-16, 1.000000000000000000 ) ) ;
#230 = EDGE_CURVE ( 'NONE', #213, #213, #25, .T. ) ;
#231 = APPROVAL ( #176, 'UNSPECIFIED' ) ;
#232 = AXIS2_PLACEMENT_3D ( 'NONE', #137, #201, #249 ) ;
#233 = APPLICATION_CONTEXT ( 'configuration controlled 3d designs of mechanical parts and assemblies' ) ;
#234 = ADVANCED_BREP_SHAPE_REPRESENTATION ( '305800', ( #49, #147, #235 ), #136 ) ;
#235 = AXIS2_PLACEMENT_3D ( 'NONE', #140, #158, #244 ) ;
#236 = DIRECTION ( 'NONE',  ( 3.491481338843133355E-15, -1.224646799147353207E-16, 1.000000000000000000 ) ) ;
#237 = ORIENTED_EDGE ( 'NONE', *, *, #252, .F. ) ;
#238 = CARTESIAN_POINT ( 'NONE',  ( 1.047444401652940007E-13, 0.5999999999999949818, 30.00000000000000000 ) ) ;
#239 = DIRECTION ( 'NONE',  ( 3.491481338843133355E-15, -1.224646799147353207E-16, 1.000000000000000000 ) ) ;
#240 = VERTEX_POINT ( 'NONE', #104 ) ;
#241 = CC_DESIGN_DATE_AND_TIME_ASSIGNMENT ( #291, #17, ( #195 ) ) ;
#242 = COORDINATED_UNIVERSAL_TIME_OFFSET ( 1, 0, .AHEAD. ) ;
#243 = DIRECTION ( 'NONE',  ( 4.275831445896958607E-31, 1.000000000000000000, 1.224646799147353454E-16 ) ) ;
#244 = DIRECTION ( 'NONE',  ( 1.000000000000000000, 0.0000000000000000000, 0.0000000000000000000 ) ) ;
#245 = PLANE ( 'NONE',  #254 ) ;
#246 = APPROVAL_PERSON_ORGANIZATION ( #250, #267, #200 ) ;
#247 = DIRECTION ( 'NONE',  ( -3.491481338843133355E-15, 1.224646799147353207E-16, -1.000000000000000000 ) ) ;
#248 = PERSON_AND_ORGANIZATION ( #90, #22 ) ;
#249 = DIRECTION ( 'NONE',  ( 4.390901511559441843E-31, 1.000000000000000000, 1.224646799147353207E-16 ) ) ;
#250 = PERSON_AND_ORGANIZATION ( #90, #22 ) ;
#251 = CARTESIAN_POINT ( 'NONE',  ( 2.135961922974680159E-14, -7.491945905511513914E-16, 6.117638090205027801 ) ) ;
#252 = EDGE_CURVE ( 'NONE', #256, #256, #94, .T. ) ;
#253 = AXIS2_PLACEMENT_3D ( 'NONE', #45, #115, #154 ) ;
#254 = AXIS2_PLACEMENT_3D ( 'NONE', #43, #247, #277 ) ;
#255 = LOCAL_TIME ( 13, 38, 5.000000000000000000, #298 ) ;
#256 = VERTEX_POINT ( 'NONE', #3 ) ;
#257 = EDGE_LOOP ( 'NONE', ( #262 ) ) ;
#258 = CARTESIAN_POINT ( 'NONE',  ( 1.047444401652940007E-13, -3.673940397442059178E-15, 30.00000000000000000 ) ) ;
#259 = AXIS2_PLACEMENT_3D ( 'NONE', #150, #125, #98 ) ;
#260 = ORIENTED_EDGE ( 'NONE', *, *, #230, .T. ) ;
#261 = VERTEX_POINT ( 'NONE', #36 ) ;
#262 = ORIENTED_EDGE ( 'NONE', *, *, #209, .T. ) ;
#263 = VERTEX_POINT ( 'NONE', #33 ) ;
#264 = EDGE_LOOP ( 'NONE', ( #172 ) ) ;
#265 = DIRECTION ( 'NONE',  ( -3.491481338843133355E-15, 1.224646799147353207E-16, -1.000000000000000000 ) ) ;
#266 = APPROVAL_DATE_TIME ( #202, #296 ) ;
#267 = APPROVAL ( #181, 'UNSPECIFIED' ) ;
#268 = FACE_OUTER_BOUND ( 'NONE', #120, .T. ) ;
#269 = APPROVAL_STATUS ( 'not_yet_approved' ) ;
#270 = DIRECTION ( 'NONE',  ( -3.491481338843133355E-15, 1.224646799147353207E-16, -1.000000000000000000 ) ) ;
#271 = CALENDAR_DATE ( 2021, 17, 12 ) ;
#272 = FACE_BOUND ( 'NONE', #264, .T. ) ;
#273 = DATE_AND_TIME ( #271, #185 ) ;
#274 = AXIS2_PLACEMENT_3D ( 'NONE', #52, #128, #28 ) ;
#275 = PRODUCT ( '305800', '305800', '', ( #38 ) ) ;
#276 = EDGE_CURVE ( 'NONE', #283, #283, #293, .T. ) ;
#277 = DIRECTION ( 'NONE',  ( 4.275831445896958607E-31, 1.000000000000000000, 1.224646799147353207E-16 ) ) ;
#278 = CC_DESIGN_APPROVAL ( #267, ( #8 ) ) ;
#279 = ADVANCED_FACE ( 'NONE', ( #289, #216 ), #106, .T. ) ;
#280 = CC_DESIGN_DATE_AND_TIME_ASSIGNMENT ( #113, #74, ( #34 ) ) ;
#281 = EDGE_LOOP ( 'NONE', ( #285 ) ) ;
#282 = VERTEX_POINT ( 'NONE', #166 ) ;
#283 = VERTEX_POINT ( 'NONE', #238 ) ;
#284 = ADVANCED_FACE ( 'NONE', ( #102, #286 ), #218, .T. ) ;
#285 = ORIENTED_EDGE ( 'NONE', *, *, #276, .T. ) ;
#286 = FACE_OUTER_BOUND ( 'NONE', #54, .T. ) ;
#287 = AXIS2_PLACEMENT_3D ( 'NONE', #21, #229, #188 ) ;
#288 = VERTEX_POINT ( 'NONE', #121 ) ;
#289 = FACE_BOUND ( 'NONE', #217, .T. ) ;
#290 = DIRECTION ( 'NONE',  ( 3.491481338843133355E-15, -1.224646799147353207E-16, 1.000000000000000000 ) ) ;
#291 = DATE_AND_TIME ( #89, #129 ) ;
#292 = FACE_OUTER_BOUND ( 'NONE', #130, .T. ) ;
#293 = CIRCLE ( 'NONE', #78, 0.5999999999999986455 ) ;
#294 = DIRECTION ( 'NONE',  ( -3.491481338843133355E-15, 1.224646799147353207E-16, -1.000000000000000000 ) ) ;
#295 = PERSON_AND_ORGANIZATION ( #90, #22 ) ;
#296 = APPROVAL ( #269, 'UNSPECIFIED' ) ;
#297 = DIRECTION ( 'NONE',  ( 4.275831445896958607E-31, 1.000000000000000000, 1.224646799147353207E-16 ) ) ;
#298 = COORDINATED_UNIVERSAL_TIME_OFFSET ( 1, 0, .AHEAD. ) ;
#299 = CLOSED_SHELL ( 'NONE', ( #167, #79, #56, #143, #284, #93, #123 ) ) ;
#300 = PERSON_AND_ORGANIZATION ( #90, #22 ) ;
#301 = CC_DESIGN_APPROVAL ( #231, ( #195 ) ) ;
#302 = FACE_BOUND ( 'NONE', #58, .T. ) ;
#303 = CIRCLE ( 'NONE', #189, 0.6154999999999999361 ) ;
ENDSEC;
END-ISO-10303-21;
