ISO-10303-21;
HEADER;
FILE_DESCRIPTION (( 'STEP AP203' ),
    '1' );
FILE_NAME ('305799.step',
    '2021-12-17T12:38:04',
    ( '' ),
    ( '' ),
    'SwSTEP 2.0',
    'SolidWorks 2019',
    '' );
FILE_SCHEMA (( 'CONFIG_CONTROL_DESIGN' ));
ENDSEC;

DATA;
#1 = EDGE_LOOP ( 'NONE', ( #174 ) ) ;
#2 = APPROVAL_PERSON_ORGANIZATION ( #87, #260, #232 ) ;
#3 = DATE_AND_TIME ( #303, #52 ) ;
#4 = EDGE_LOOP ( 'NONE', ( #298 ) ) ;
#5 = FACE_OUTER_BOUND ( 'NONE', #302, .T. ) ;
#6 = CARTESIAN_POINT ( 'NONE',  ( 1.745740669421566678E-14, -6.123233995736766282E-16, 5.000000000000000000 ) ) ;
#7 = CIRCLE ( 'NONE', #213, 0.5190000000000000169 ) ;
#8 = DIRECTION ( 'NONE',  ( 4.275831445896958607E-31, 1.000000000000000000, 1.224646799147353207E-16 ) ) ;
#9 = EDGE_CURVE ( 'NONE', #98, #98, #192, .T. ) ;
#10 = CARTESIAN_POINT ( 'NONE',  ( 1.042207179644675275E-13, 0.7499999999999947820, 29.84999999999999787 ) ) ;
#11 = DIRECTION ( 'NONE',  ( 4.275831445896958607E-31, 1.000000000000000000, 1.224646799147353207E-16 ) ) ;
#12 = DIRECTION ( 'NONE',  ( -3.491481338843133355E-15, 1.224646799147353207E-16, -1.000000000000000000 ) ) ;
#13 = CARTESIAN_POINT ( 'NONE',  ( 4.731839565957903938E-32, 0.2099999999999999922, 1.355252715606880543E-17 ) ) ;
#14 = EDGE_LOOP ( 'NONE', ( #178 ) ) ;
#15 = DESIGN_CONTEXT ( 'detailed design', #245, 'design' ) ;
#16 = EDGE_LOOP ( 'NONE', ( #267 ) ) ;
#17 = TOROIDAL_SURFACE ( 'NONE', #75, 2.519000000000000128, 2.000000000000000000 ) ;
#18 = LOCAL_TIME ( 13, 38, 4.000000000000000000, #89 ) ;
#19 = UNCERTAINTY_MEASURE_WITH_UNIT (LENGTH_MEASURE( 1.000000000000000082E-05 ), #218, 'distance_accuracy_value', 'NONE');
#20 = AXIS2_PLACEMENT_3D ( 'NONE', #274, #205, #203 ) ;
#21 = EDGE_LOOP ( 'NONE', ( #124 ) ) ;
#22 = FACE_BOUND ( 'NONE', #14, .T. ) ;
#23 = CARTESIAN_POINT ( 'NONE',  ( 1.047444401652940007E-13, 0.5999999999999949818, 30.00000000000000000 ) ) ;
#24 = DIRECTION ( 'NONE',  ( -3.491481338843133355E-15, 1.224646799147353207E-16, -1.000000000000000000 ) ) ;
#25 = ORIENTED_EDGE ( 'NONE', *, *, #138, .F. ) ;
#26 = AXIS2_PLACEMENT_3D ( 'NONE', #139, #46, #261 ) ;
#27 = CC_DESIGN_PERSON_AND_ORGANIZATION_ASSIGNMENT ( #172, #240, ( #127 ) ) ;
#28 = CARTESIAN_POINT ( 'NONE',  ( 1.047444401652940007E-13, -3.673940397442059178E-15, 30.00000000000000000 ) ) ;
#29 = PLANE ( 'NONE',  #220 ) ;
#30 = ADVANCED_FACE ( 'NONE', ( #104 ), #63, .F. ) ;
#31 = DIRECTION ( 'NONE',  ( -3.491481338843133355E-15, 1.224646799147353207E-16, -1.000000000000000000 ) ) ;
#32 = PERSON_AND_ORGANIZATION ( #222, #159 ) ;
#33 = DIRECTION ( 'NONE',  ( 3.491481338843133355E-15, -1.224646799147353207E-16, 1.000000000000000000 ) ) ;
#34 = DIRECTION ( 'NONE',  ( -3.491481338843133355E-15, 1.224646799147353207E-16, -1.000000000000000000 ) ) ;
#35 = COORDINATED_UNIVERSAL_TIME_OFFSET ( 1, 0, .AHEAD. ) ;
#36 = CC_DESIGN_SECURITY_CLASSIFICATION ( #110, ( #127 ) ) ;
#37 = EDGE_LOOP ( 'NONE', ( #129 ) ) ;
#38 = ADVANCED_FACE ( 'NONE', ( #185 ), #62, .T. ) ;
#39 = CARTESIAN_POINT ( 'NONE',  ( 1.047444401652940007E-13, -3.673940397442059178E-15, 30.00000000000000000 ) ) ;
#40 = ADVANCED_FACE ( 'NONE', ( #22, #111 ), #206, .T. ) ;
#41 = CIRCLE ( 'NONE', #79, 0.5190000000000000169 ) ;
#42 = ORIENTED_EDGE ( 'NONE', *, *, #264, .F. ) ;
#43 = FACE_OUTER_BOUND ( 'NONE', #37, .T. ) ;
#44 = APPROVAL_ROLE ( '' ) ;
#45 = CARTESIAN_POINT ( 'NONE',  ( 1.745740669421566678E-14, -4.336808689942017736E-16, 5.000000000000000000 ) ) ;
#46 = DIRECTION ( 'NONE',  ( 3.491481338843133355E-15, -1.224646799147353207E-16, 1.000000000000000000 ) ) ;
#47 = AXIS2_PLACEMENT_3D ( 'NONE', #167, #12, #8 ) ;
#48 = DIRECTION ( 'NONE',  ( 0.0000000000000000000, 1.000000000000000000, 0.0000000000000000000 ) ) ;
#49 = EDGE_CURVE ( 'NONE', #169, #169, #142, .T. ) ;
#50 = FACE_OUTER_BOUND ( 'NONE', #55, .T. ) ;
#51 = FACE_OUTER_BOUND ( 'NONE', #202, .T. ) ;
#52 = LOCAL_TIME ( 13, 38, 4.000000000000000000, #207 ) ;
#53 = CARTESIAN_POINT ( 'NONE',  ( 0.0000000000000000000, 0.0000000000000000000, 0.0000000000000000000 ) ) ;
#54 = PERSON_AND_ORGANIZATION ( #222, #159 ) ;
#55 = EDGE_LOOP ( 'NONE', ( #181 ) ) ;
#56 = APPROVAL_DATE_TIME ( #99, #189 ) ;
#57 = AXIS2_PLACEMENT_3D ( 'NONE', #28, #96, #48 ) ;
#58 = EDGE_LOOP ( 'NONE', ( #221 ) ) ;
#59 = APPLICATION_CONTEXT ( 'configuration controlled 3d designs of mechanical parts and assemblies' ) ;
#60 = COORDINATED_UNIVERSAL_TIME_OFFSET ( 1, 0, .AHEAD. ) ;
#61 = CIRCLE ( 'NONE', #155, 0.7499999999999971134 ) ;
#62 = PLANE ( 'NONE',  #270 ) ;
#63 = PLANE ( 'NONE',  #93 ) ;
#64 = CIRCLE ( 'NONE', #47, 0.2099999999999999922 ) ;
#65 = DIRECTION ( 'NONE',  ( -7.421695354093400300E-31, -1.000000000000000000, -2.089021526947023685E-16 ) ) ;
#66 = CC_DESIGN_PERSON_AND_ORGANIZATION_ASSIGNMENT ( #54, #147, ( #110 ) ) ;
#67 = CYLINDRICAL_SURFACE ( 'NONE', #186, 0.7499999999999978906 ) ;
#68 = DIRECTION ( 'NONE',  ( -4.275831445896958607E-31, -1.000000000000000000, -1.224646799147353207E-16 ) ) ;
#69 = DIRECTION ( 'NONE',  ( 3.491481338843133355E-15, -1.224646799147353207E-16, 1.000000000000000000 ) ) ;
#70 = ORIENTED_EDGE ( 'NONE', *, *, #180, .T. ) ;
#71 = ADVANCED_FACE ( 'NONE', ( #209, #227 ), #67, .T. ) ;
#72 = DIRECTION ( 'NONE',  ( 0.0000000000000000000, 1.000000000000000000, 0.0000000000000000000 ) ) ;
#73 = DIRECTION ( 'NONE',  ( 0.0000000000000000000, 1.000000000000000000, 0.0000000000000000000 ) ) ;
#74 = VERTEX_POINT ( 'NONE', #170 ) ;
#75 = AXIS2_PLACEMENT_3D ( 'NONE', #45, #135, #233 ) ;
#76 = CC_DESIGN_APPROVAL ( #260, ( #127 ) ) ;
#77 = FACE_BOUND ( 'NONE', #1, .T. ) ;
#78 = CARTESIAN_POINT ( 'NONE',  ( 1.396592535537253342E-14, 0.5189999999999994618, 4.000000000000000000 ) ) ;
#79 = AXIS2_PLACEMENT_3D ( 'NONE', #293, #137, #73 ) ;
#80 = ORIENTED_EDGE ( 'NONE', *, *, #9, .T. ) ;
#81 = EDGE_LOOP ( 'NONE', ( #285 ) ) ;
#82 = CALENDAR_DATE ( 2021, 17, 12 ) ;
#83 = PERSON_AND_ORGANIZATION ( #222, #159 ) ;
#84 = ADVANCED_FACE ( 'NONE', ( #255, #43 ), #17, .F. ) ;
#85 = FACE_OUTER_BOUND ( 'NONE', #58, .T. ) ;
#86 = DIRECTION ( 'NONE',  ( 3.491481338843133355E-15, -1.224646799147353207E-16, 1.000000000000000000 ) ) ;
#87 = PERSON_AND_ORGANIZATION ( #222, #159 ) ;
#88 = EDGE_LOOP ( 'NONE', ( #42 ) ) ;
#89 = COORDINATED_UNIVERSAL_TIME_OFFSET ( 1, 0, .AHEAD. ) ;
#90 = CARTESIAN_POINT ( 'NONE',  ( 0.0000000000000000000, 0.0000000000000000000, 0.0000000000000000000 ) ) ;
#91 = CARTESIAN_POINT ( 'NONE',  ( 2.138675027959836155E-14, -7.501462196774073252E-16, 6.125408731723206657 ) ) ;
#92 = ORIENTED_EDGE ( 'NONE', *, *, #103, .T. ) ;
#93 = AXIS2_PLACEMENT_3D ( 'NONE', #128, #86, #68 ) ;
#94 = CONICAL_SURFACE ( 'NONE', #248, 0.5999999999999986455, 0.7853981633974450594 ) ;
#95 = CARTESIAN_POINT ( 'NONE',  ( 1.396592535537253342E-14, -4.898587196589412829E-16, 4.000000000000000000 ) ) ;
#96 = DIRECTION ( 'NONE',  ( -3.491481338843133355E-15, 1.224646799147353207E-16, -1.000000000000000000 ) ) ;
#97 = ADVANCED_FACE ( 'NONE', ( #85, #300 ), #184, .T. ) ;
#98 = VERTEX_POINT ( 'NONE', #242 ) ;
#99 = DATE_AND_TIME ( #268, #183 ) ;
#100 = APPROVAL_PERSON_ORGANIZATION ( #223, #189, #179 ) ;
#101 = ADVANCED_FACE ( 'NONE', ( #282, #164 ), #94, .T. ) ;
#102 = PERSON_AND_ORGANIZATION ( #222, #159 ) ;
#103 = EDGE_CURVE ( 'NONE', #195, #195, #61, .T. ) ;
#104 = FACE_OUTER_BOUND ( 'NONE', #162, .T. ) ;
#105 = CARTESIAN_POINT ( 'NONE',  ( 0.0000000000000000000, 0.0000000000000000000, 0.0000000000000000000 ) ) ;
#106 = AXIS2_PLACEMENT_3D ( 'NONE', #276, #24, #190 ) ;
#107 = DIRECTION ( 'NONE',  ( -3.491481338843133355E-15, 1.224646799147353207E-16, -1.000000000000000000 ) ) ;
#108 = ORIENTED_EDGE ( 'NONE', *, *, #231, .T. ) ;
#109 = ADVANCED_FACE ( 'NONE', ( #77, #50 ), #171, .T. ) ;
#110 = SECURITY_CLASSIFICATION ( '', '', #215 ) ;
#111 = FACE_OUTER_BOUND ( 'NONE', #154, .T. ) ;
#112 = DIRECTION ( 'NONE',  ( -3.491481338843133355E-15, 1.224646799147353207E-16, -1.000000000000000000 ) ) ;
#113 = CC_DESIGN_PERSON_AND_ORGANIZATION_ASSIGNMENT ( #102, #199, ( #266 ) ) ;
#114 = DIRECTION ( 'NONE',  ( -3.491481338843133355E-15, 1.224646799147353207E-16, -1.000000000000000000 ) ) ;
#115 = AXIS2_PLACEMENT_3D ( 'NONE', #160, #107, #132 ) ;
#116 = CARTESIAN_POINT ( 'NONE',  ( 1.926473042644092158E-14, -6.757157826023103617E-16, 5.517638090205028156 ) ) ;
#117 = PERSON_AND_ORGANIZATION_ROLE ( 'design_supplier' ) ;
#118 = DIRECTION ( 'NONE',  ( -4.275831445896958607E-31, -1.000000000000000000, -1.224646799147353207E-16 ) ) ;
#119 = CC_DESIGN_PERSON_AND_ORGANIZATION_ASSIGNMENT ( #32, #117, ( #127 ) ) ;
#120 = DIRECTION ( 'NONE',  ( 0.0000000000000000000, 1.000000000000000000, 0.0000000000000000000 ) ) ;
#121 = AXIS2_PLACEMENT_3D ( 'NONE', #283, #69, #118 ) ;
#122 = APPROVAL ( #249, 'UNSPECIFIED' ) ;
#123 = MANIFOLD_SOLID_BREP ( 'Corps-Déplacer/Copier1[2]', #279 ) ;
#124 = ORIENTED_EDGE ( 'NONE', *, *, #264, .T. ) ;
#125 = EDGE_LOOP ( 'NONE', ( #252 ) ) ;
#126 = DATE_AND_TIME ( #82, #197 ) ;
#127 = PRODUCT_DEFINITION_FORMATION_WITH_SPECIFIED_SOURCE ( 'ANY', '', #266, .NOT_KNOWN. ) ;
#128 = CARTESIAN_POINT ( 'NONE',  ( 1.396592535537253342E-14, 3.891876636007513869E-33, 4.000000000000000000 ) ) ;
#129 = ORIENTED_EDGE ( 'NONE', *, *, #168, .T. ) ;
#130 = CIRCLE ( 'NONE', #294, 0.5190000000000001279 ) ;
#131 = CC_DESIGN_PERSON_AND_ORGANIZATION_ASSIGNMENT ( #291, #229, ( #243 ) ) ;
#132 = DIRECTION ( 'NONE',  ( 4.293342649543469946E-31, 1.000000000000000000, 1.208468522291114328E-16 ) ) ;
#133 = ORIENTED_EDGE ( 'NONE', *, *, #180, .F. ) ;
#134 = MANIFOLD_SOLID_BREP ( 'Corps-Déplacer/Copier1[1]', #225 ) ;
#135 = DIRECTION ( 'NONE',  ( -3.491481338843133355E-15, 1.224646799147353207E-16, -1.000000000000000000 ) ) ;
#136 =( GEOMETRIC_REPRESENTATION_CONTEXT ( 3 ) GLOBAL_UNCERTAINTY_ASSIGNED_CONTEXT ( ( #19 ) ) GLOBAL_UNIT_ASSIGNED_CONTEXT ( ( #218, #148, #292 ) ) REPRESENTATION_CONTEXT ( 'NONE', 'WORKASPACE' ) );
#137 = DIRECTION ( 'NONE',  ( -3.491481338843133355E-15, 1.224646799147353207E-16, -1.000000000000000000 ) ) ;
#138 = EDGE_CURVE ( 'NONE', #74, #74, #130, .T. ) ;
#139 = CARTESIAN_POINT ( 'NONE',  ( 4.809418685346531412E-16, -1.686916992293202313E-17, 0.1377472258505635649 ) ) ;
#140 = FACE_OUTER_BOUND ( 'NONE', #4, .T. ) ;
#141 = DATE_AND_TIME ( #244, #208 ) ;
#142 = CIRCLE ( 'NONE', #115, 0.4485851937748384644 ) ;
#143 = DIRECTION ( 'NONE',  ( -3.491481338843133355E-15, 1.224646799147353207E-16, -1.000000000000000000 ) ) ;
#144 = APPROVAL_PERSON_ORGANIZATION ( #83, #122, #44 ) ;
#145 = VERTEX_POINT ( 'NONE', #241 ) ;
#146 = CARTESIAN_POINT ( 'NONE',  ( 1.042207179644675275E-13, -3.655570695454848748E-15, 29.84999999999999787 ) ) ;
#147 = PERSON_AND_ORGANIZATION_ROLE ( 'classification_officer' ) ;
#148 =( NAMED_UNIT ( * ) PLANE_ANGLE_UNIT ( ) SI_UNIT ( $, .RADIAN. ) );
#149 = ORIENTED_EDGE ( 'NONE', *, *, #301, .F. ) ;
#150 = AXIS2_PLACEMENT_3D ( 'NONE', #116, #114, #257 ) ;
#151 = ADVANCED_FACE ( 'NONE', ( #140, #219 ), #259, .T. ) ;
#152 = APPROVAL_STATUS ( 'not_yet_approved' ) ;
#153 = ADVANCED_FACE ( 'NONE', ( #51 ), #29, .F. ) ;
#154 = EDGE_LOOP ( 'NONE', ( #80 ) ) ;
#155 = AXIS2_PLACEMENT_3D ( 'NONE', #235, #34, #120 ) ;
#156 = ORIENTED_EDGE ( 'NONE', *, *, #269, .T. ) ;
#157 = CARTESIAN_POINT ( 'NONE',  ( 1.745740669421566283E-15, -6.123233995736764803E-17, 0.4999999999999998890 ) ) ;
#158 = CARTESIAN_POINT ( 'NONE',  ( 1.396592535537253342E-14, 3.891876636007513869E-33, 4.000000000000000000 ) ) ;
#159 = ORGANIZATION ( 'UNSPECIFIED', 'UNSPECIFIED', '' ) ;
#160 = CARTESIAN_POINT ( 'NONE',  ( 4.809418685346531412E-16, -1.686916992293202313E-17, 0.1377472258505635649 ) ) ;
#161 = APPROVAL_STATUS ( 'not_yet_approved' ) ;
#162 = EDGE_LOOP ( 'NONE', ( #156 ) ) ;
#163 = COORDINATED_UNIVERSAL_TIME_OFFSET ( 1, 0, .AHEAD. ) ;
#164 = FACE_BOUND ( 'NONE', #246, .T. ) ;
#165 = CC_DESIGN_APPROVAL ( #189, ( #110 ) ) ;
#166 = DIRECTION ( 'NONE',  ( 0.0000000000000000000, 1.000000000000000000, 0.0000000000000000000 ) ) ;
#167 = CARTESIAN_POINT ( 'NONE',  ( -4.247406470425708873E-32, 1.489789643386176385E-33, -1.216505562602560891E-17 ) ) ;
#168 = EDGE_CURVE ( 'NONE', #265, #265, #226, .T. ) ;
#169 = VERTEX_POINT ( 'NONE', #217 ) ;
#170 = CARTESIAN_POINT ( 'NONE',  ( 1.745740669421566678E-14, 0.5189999999999994618, 5.000000000000000000 ) ) ;
#171 = CONICAL_SURFACE ( 'NONE', #26, 0.4485851937748384644, 1.047197551196592968 ) ;
#172 = PERSON_AND_ORGANIZATION ( #222, #159 ) ;
#173 = EDGE_LOOP ( 'NONE', ( #271 ) ) ;
#174 = ORIENTED_EDGE ( 'NONE', *, *, #231, .F. ) ;
#175 = DATE_TIME_ROLE ( 'classification_date' ) ;
#176 = CONICAL_SURFACE ( 'NONE', #297, 0.7499999999999971134, 0.2617993877991431906 ) ;
#177 = APPLICATION_PROTOCOL_DEFINITION ( 'international standard', 'config_control_design', 1994, #59 ) ;
#178 = ORIENTED_EDGE ( 'NONE', *, *, #49, .F. ) ;
#179 = APPROVAL_ROLE ( '' ) ;
#180 = EDGE_CURVE ( 'NONE', #198, #198, #273, .T. ) ;
#181 = ORIENTED_EDGE ( 'NONE', *, *, #49, .T. ) ;
#182 = SHAPE_DEFINITION_REPRESENTATION ( #250, #228 ) ;
#183 = LOCAL_TIME ( 13, 38, 4.000000000000000000, #60 ) ;
#184 = CYLINDRICAL_SURFACE ( 'NONE', #106, 0.5190000000000001279 ) ;
#185 = FACE_OUTER_BOUND ( 'NONE', #211, .T. ) ;
#186 = AXIS2_PLACEMENT_3D ( 'NONE', #90, #256, #251 ) ;
#187 = CC_DESIGN_APPROVAL ( #122, ( #243 ) ) ;
#188 = EDGE_LOOP ( 'NONE', ( #92 ) ) ;
#189 = APPROVAL ( #152, 'UNSPECIFIED' ) ;
#190 = DIRECTION ( 'NONE',  ( 4.275831445896959482E-31, 1.000000000000000000, 1.224646799147353207E-16 ) ) ;
#191 = CARTESIAN_POINT ( 'NONE',  ( 1.926473042644092158E-14, 0.5871483474218591736, 5.517638090205028156 ) ) ;
#192 = CIRCLE ( 'NONE', #20, 0.5189999999999995728 ) ;
#193 = DIRECTION ( 'NONE',  ( -3.491481338843133355E-15, 1.224646799147353207E-16, -1.000000000000000000 ) ) ;
#194 = DIRECTION ( 'NONE',  ( 0.0000000000000000000, 1.000000000000000000, 0.0000000000000000000 ) ) ;
#195 = VERTEX_POINT ( 'NONE', #290 ) ;
#196 = DIRECTION ( 'NONE',  ( 4.275831445896959482E-31, 1.000000000000000000, 1.224646799147353207E-16 ) ) ;
#197 = LOCAL_TIME ( 13, 38, 4.000000000000000000, #35 ) ;
#198 = VERTEX_POINT ( 'NONE', #23 ) ;
#199 = PERSON_AND_ORGANIZATION_ROLE ( 'design_owner' ) ;
#200 = DIRECTION ( 'NONE',  ( -4.275831445896958607E-31, -1.000000000000000000, -1.224646799147353207E-16 ) ) ;
#201 = CC_DESIGN_DATE_AND_TIME_ASSIGNMENT ( #126, #175, ( #110 ) ) ;
#202 = EDGE_LOOP ( 'NONE', ( #133 ) ) ;
#203 = DIRECTION ( 'NONE',  ( 7.421695354093400300E-31, 1.000000000000000000, 2.089021526947023685E-16 ) ) ;
#204 = APPROVAL_DATE_TIME ( #288, #122 ) ;
#205 = DIRECTION ( 'NONE',  ( -3.491481338843133355E-15, 1.224646799147353207E-16, -1.000000000000000000 ) ) ;
#206 = CONICAL_SURFACE ( 'NONE', #253, 0.5189999999999995728, 0.1919862177193698560 ) ;
#207 = COORDINATED_UNIVERSAL_TIME_OFFSET ( 1, 0, .AHEAD. ) ;
#208 = LOCAL_TIME ( 13, 38, 4.000000000000000000, #163 ) ;
#209 = FACE_OUTER_BOUND ( 'NONE', #173, .T. ) ;
#210 = FACE_OUTER_BOUND ( 'NONE', #188, .T. ) ;
#211 = EDGE_LOOP ( 'NONE', ( #149 ) ) ;
#212 = FACE_BOUND ( 'NONE', #125, .T. ) ;
#213 = AXIS2_PLACEMENT_3D ( 'NONE', #95, #239, #194 ) ;
#214 = DIRECTION ( 'NONE',  ( 0.0000000000000000000, -1.000000000000000000, 0.0000000000000000000 ) ) ;
#215 = SECURITY_CLASSIFICATION_LEVEL ( 'unclassified' ) ;
#216 = VERTEX_POINT ( 'NONE', #13 ) ;
#217 = CARTESIAN_POINT ( 'NONE',  ( 4.809418685346533384E-16, 0.4485851937748384644, 0.1377472258505636205 ) ) ;
#218 =( LENGTH_UNIT ( ) NAMED_UNIT ( * ) SI_UNIT ( .MILLI., .METRE. ) );
#219 = FACE_OUTER_BOUND ( 'NONE', #16, .T. ) ;
#220 = AXIS2_PLACEMENT_3D ( 'NONE', #286, #143, #11 ) ;
#221 = ORIENTED_EDGE ( 'NONE', *, *, #269, .F. ) ;
#222 = PERSON ( 'UNSPECIFIED', 'UNSPECIFIED', 'UNSPECIFIED', ('UNSPECIFIED'), ('UNSPECIFIED'), ('UNSPECIFIED') ) ;
#223 = PERSON_AND_ORGANIZATION ( #222, #159 ) ;
#224 = DIRECTION ( 'NONE',  ( -3.491481338843133355E-15, 1.224646799147353207E-16, -1.000000000000000000 ) ) ;
#225 = CLOSED_SHELL ( 'NONE', ( #30, #97, #84, #247, #71, #101, #153 ) ) ;
#226 = CIRCLE ( 'NONE', #150, 0.5871483474218598397 ) ;
#227 = FACE_OUTER_BOUND ( 'NONE', #21, .T. ) ;
#228 = ADVANCED_BREP_SHAPE_REPRESENTATION ( '305799', ( #134, #123, #280 ), #136 ) ;
#229 = PERSON_AND_ORGANIZATION_ROLE ( 'creator' ) ;
#230 = EDGE_LOOP ( 'NONE', ( #25 ) ) ;
#231 = EDGE_CURVE ( 'NONE', #216, #216, #64, .T. ) ;
#232 = APPROVAL_ROLE ( '' ) ;
#233 = DIRECTION ( 'NONE',  ( 4.393358750182240602E-31, 1.000000000000000000, 1.224646799147353207E-16 ) ) ;
#234 = AXIS2_PLACEMENT_3D ( 'NONE', #53, #112, #196 ) ;
#235 = CARTESIAN_POINT ( 'NONE',  ( 2.138675027959836155E-14, -7.501462196774073252E-16, 6.125408731723206657 ) ) ;
#236 = DIRECTION ( 'NONE',  ( 0.0000000000000000000, 1.000000000000000000, 0.0000000000000000000 ) ) ;
#237 = APPROVAL_DATE_TIME ( #141, #260 ) ;
#238 = AXIS2_PLACEMENT_3D ( 'NONE', #146, #193, #72 ) ;
#239 = DIRECTION ( 'NONE',  ( -3.491481338843133355E-15, 1.224646799147353207E-16, -1.000000000000000000 ) ) ;
#240 = PERSON_AND_ORGANIZATION_ROLE ( 'creator' ) ;
#241 = CARTESIAN_POINT ( 'NONE',  ( 1.396592535537253342E-14, 0.5189999999999994618, 4.000000000000000000 ) ) ;
#242 = CARTESIAN_POINT ( 'NONE',  ( 1.745740669421566678E-15, 0.5189999999999994618, 0.5000000000000000000 ) ) ;
#243 = PRODUCT_DEFINITION ( 'UNKNOWN', '', #127, #15 ) ;
#244 = CALENDAR_DATE ( 2021, 17, 12 ) ;
#245 = APPLICATION_CONTEXT ( 'configuration controlled 3d designs of mechanical parts and assemblies' ) ;
#246 = EDGE_LOOP ( 'NONE', ( #70 ) ) ;
#247 = ADVANCED_FACE ( 'NONE', ( #212, #210 ), #176, .T. ) ;
#248 = AXIS2_PLACEMENT_3D ( 'NONE', #39, #224, #166 ) ;
#249 = APPROVAL_STATUS ( 'not_yet_approved' ) ;
#250 = PRODUCT_DEFINITION_SHAPE ( 'NONE', 'NONE',  #243 ) ;
#251 = DIRECTION ( 'NONE',  ( 4.275831445896958607E-31, 1.000000000000000000, 1.224646799147353207E-16 ) ) ;
#252 = ORIENTED_EDGE ( 'NONE', *, *, #168, .F. ) ;
#253 = AXIS2_PLACEMENT_3D ( 'NONE', #157, #278, #65 ) ;
#254 = CALENDAR_DATE ( 2021, 17, 12 ) ;
#255 = FACE_OUTER_BOUND ( 'NONE', #230, .T. ) ;
#256 = DIRECTION ( 'NONE',  ( -3.491481338843133355E-15, 1.224646799147353207E-16, -1.000000000000000000 ) ) ;
#257 = DIRECTION ( 'NONE',  ( 0.0000000000000000000, 1.000000000000000000, 0.0000000000000000000 ) ) ;
#258 = CIRCLE ( 'NONE', #238, 0.7499999999999984457 ) ;
#259 = CYLINDRICAL_SURFACE ( 'NONE', #234, 0.5189999999999997948 ) ;
#260 = APPROVAL ( #161, 'UNSPECIFIED' ) ;
#261 = DIRECTION ( 'NONE',  ( -4.293342649543469946E-31, -1.000000000000000000, -1.208468522291114328E-16 ) ) ;
#262 = DATE_TIME_ROLE ( 'creation_date' ) ;
#263 = VERTEX_POINT ( 'NONE', #10 ) ;
#264 = EDGE_CURVE ( 'NONE', #263, #263, #258, .T. ) ;
#265 = VERTEX_POINT ( 'NONE', #191 ) ;
#266 = PRODUCT ( '305799', '305799', '', ( #272 ) ) ;
#267 = ORIENTED_EDGE ( 'NONE', *, *, #301, .T. ) ;
#268 = CALENDAR_DATE ( 2021, 17, 12 ) ;
#269 = EDGE_CURVE ( 'NONE', #289, #289, #7, .T. ) ;
#270 = AXIS2_PLACEMENT_3D ( 'NONE', #158, #281, #200 ) ;
#271 = ORIENTED_EDGE ( 'NONE', *, *, #103, .F. ) ;
#272 = MECHANICAL_CONTEXT ( 'NONE', #59, 'mechanical' ) ;
#273 = CIRCLE ( 'NONE', #57, 0.5999999999999986455 ) ;
#274 = CARTESIAN_POINT ( 'NONE',  ( 1.745740669421566283E-15, -6.123233995736764803E-17, 0.4999999999999998890 ) ) ;
#275 = DIRECTION ( 'NONE',  ( 1.000000000000000000, 0.0000000000000000000, 0.0000000000000000000 ) ) ;
#276 = CARTESIAN_POINT ( 'NONE',  ( 0.0000000000000000000, 0.0000000000000000000, 0.0000000000000000000 ) ) ;
#277 = CC_DESIGN_DATE_AND_TIME_ASSIGNMENT ( #3, #262, ( #243 ) ) ;
#278 = DIRECTION ( 'NONE',  ( 3.491481338843133355E-15, -1.224646799147353207E-16, 1.000000000000000000 ) ) ;
#279 = CLOSED_SHELL ( 'NONE', ( #295, #109, #40, #151, #38 ) ) ;
#280 = AXIS2_PLACEMENT_3D ( 'NONE', #105, #299, #275 ) ;
#281 = DIRECTION ( 'NONE',  ( 3.491481338843133355E-15, -1.224646799147353207E-16, 1.000000000000000000 ) ) ;
#282 = FACE_OUTER_BOUND ( 'NONE', #88, .T. ) ;
#283 = CARTESIAN_POINT ( 'NONE',  ( -2.123703235212854436E-32, 7.448948216930881924E-34, -6.082527813012804453E-18 ) ) ;
#284 = PRODUCT_RELATED_PRODUCT_CATEGORY ( 'detail', '', ( #266 ) ) ;
#285 = ORIENTED_EDGE ( 'NONE', *, *, #138, .T. ) ;
#286 = CARTESIAN_POINT ( 'NONE',  ( 1.047444401652940007E-13, 4.499279347985507822E-33, 30.00000000000000000 ) ) ;
#287 = PLANE ( 'NONE',  #121 ) ;
#288 = DATE_AND_TIME ( #254, #18 ) ;
#289 = VERTEX_POINT ( 'NONE', #78 ) ;
#290 = CARTESIAN_POINT ( 'NONE',  ( 2.138675027959836155E-14, 0.7499999999999963363, 6.125408731723206657 ) ) ;
#291 = PERSON_AND_ORGANIZATION ( #222, #159 ) ;
#292 =( NAMED_UNIT ( * ) SI_UNIT ( $, .STERADIAN. ) SOLID_ANGLE_UNIT ( ) );
#293 = CARTESIAN_POINT ( 'NONE',  ( 1.396592535537253342E-14, -4.898587196589412829E-16, 4.000000000000000000 ) ) ;
#294 = AXIS2_PLACEMENT_3D ( 'NONE', #6, #31, #236 ) ;
#295 = ADVANCED_FACE ( 'NONE', ( #5 ), #287, .F. ) ;
#296 = APPLICATION_PROTOCOL_DEFINITION ( 'international standard', 'config_control_design', 1994, #245 ) ;
#297 = AXIS2_PLACEMENT_3D ( 'NONE', #91, #33, #214 ) ;
#298 = ORIENTED_EDGE ( 'NONE', *, *, #9, .F. ) ;
#299 = DIRECTION ( 'NONE',  ( 0.0000000000000000000, 0.0000000000000000000, 1.000000000000000000 ) ) ;
#300 = FACE_OUTER_BOUND ( 'NONE', #81, .T. ) ;
#301 = EDGE_CURVE ( 'NONE', #145, #145, #41, .T. ) ;
#302 = EDGE_LOOP ( 'NONE', ( #108 ) ) ;
#303 = CALENDAR_DATE ( 2021, 17, 12 ) ;
ENDSEC;
END-ISO-10303-21;
