ISO-10303-21;
HEADER;
FILE_DESCRIPTION (( 'STEP AP203' ),
    '1' );
FILE_NAME ('305797.step',
    '2021-12-17T10:17:51',
    ( '' ),
    ( '' ),
    'SwSTEP 2.0',
    'SolidWorks 2019',
    '' );
FILE_SCHEMA (( 'CONFIG_CONTROL_DESIGN' ));
ENDSEC;

DATA;
#1 = EDGE_LOOP ( 'NONE', ( #185 ) ) ;
#2 = ORIENTED_EDGE ( 'NONE', *, *, #41, .F. ) ;
#3 = CARTESIAN_POINT ( 'NONE',  ( 1.042207179644675275E-13, -3.655570695454848748E-15, 29.84999999999999787 ) ) ;
#4 = CONICAL_SURFACE ( 'NONE', #121, 0.7219999999999993090, 0.1919862177193694674 ) ;
#5 = DIRECTION ( 'NONE',  ( 0.0000000000000000000, 1.000000000000000000, 0.0000000000000000000 ) ) ;
#6 = APPROVAL_PERSON_ORGANIZATION ( #44, #237, #186 ) ;
#7 = CLOSED_SHELL ( 'NONE', ( #229, #86, #275, #205, #260, #289, #231 ) ) ;
#8 = EDGE_LOOP ( 'NONE', ( #211 ) ) ;
#9 = CARTESIAN_POINT ( 'NONE',  ( 2.456658614367850475E-14, -8.616798478092993046E-16, 7.036149920199313179 ) ) ;
#10 = ADVANCED_FACE ( 'NONE', ( #69 ), #262, .F. ) ;
#11 = FACE_OUTER_BOUND ( 'NONE', #8, .T. ) ;
#12 = CC_DESIGN_PERSON_AND_ORGANIZATION_ASSIGNMENT ( #280, #89, ( #288 ) ) ;
#13 =( GEOMETRIC_REPRESENTATION_CONTEXT ( 3 ) GLOBAL_UNCERTAINTY_ASSIGNED_CONTEXT ( ( #103 ) ) GLOBAL_UNIT_ASSIGNED_CONTEXT ( ( #131, #277, #210 ) ) REPRESENTATION_CONTEXT ( 'NONE', 'WORKASPACE' ) );
#14 = DIRECTION ( 'NONE',  ( -3.491481338843133355E-15, 1.224646799147353207E-16, -1.000000000000000000 ) ) ;
#15 = CARTESIAN_POINT ( 'NONE',  ( 5.723299190498399047E-16, -2.007463123525921264E-17, 0.1639218038150750956 ) ) ;
#16 = DIRECTION ( 'NONE',  ( 4.275831445896958607E-31, 1.000000000000000000, 1.224646799147353207E-16 ) ) ;
#17 = AXIS2_PLACEMENT_3D ( 'NONE', #228, #36, #126 ) ;
#18 = DIRECTION ( 'NONE',  ( 5.334985995532514703E-31, 1.000000000000000000, 1.501665058844190491E-16 ) ) ;
#19 = APPROVAL_DATE_TIME ( #163, #110 ) ;
#20 = CC_DESIGN_PERSON_AND_ORGANIZATION_ASSIGNMENT ( #301, #46, ( #207 ) ) ;
#21 = PRODUCT_RELATED_PRODUCT_CATEGORY ( 'detail', '', ( #146 ) ) ;
#22 = APPROVAL_STATUS ( 'not_yet_approved' ) ;
#23 = EDGE_LOOP ( 'NONE', ( #253 ) ) ;
#24 = DATE_AND_TIME ( #235, #217 ) ;
#25 = EDGE_LOOP ( 'NONE', ( #257 ) ) ;
#26 = DIRECTION ( 'NONE',  ( 0.0000000000000000000, 1.000000000000000000, 0.0000000000000000000 ) ) ;
#27 = CARTESIAN_POINT ( 'NONE',  ( 3.142333204958819625E-15, -1.102182119232617788E-16, 0.8999999999999999112 ) ) ;
#28 = DIRECTION ( 'NONE',  ( 0.0000000000000000000, 1.000000000000000000, 0.0000000000000000000 ) ) ;
#29 = FACE_OUTER_BOUND ( 'NONE', #132, .T. ) ;
#30 = CC_DESIGN_APPROVAL ( #110, ( #207 ) ) ;
#31 = DATE_AND_TIME ( #141, #303 ) ;
#32 = DIRECTION ( 'NONE',  ( -4.275831445896958607E-31, -1.000000000000000000, -1.224646799147353207E-16 ) ) ;
#33 = VERTEX_POINT ( 'NONE', #122 ) ;
#34 = DIRECTION ( 'NONE',  ( 0.0000000000000000000, -1.000000000000000000, 0.0000000000000000000 ) ) ;
#35 = CIRCLE ( 'NONE', #60, 0.7560741737109299976 ) ;
#36 = DIRECTION ( 'NONE',  ( -3.491481338843133355E-15, 1.224646799147353207E-16, -1.000000000000000000 ) ) ;
#37 = CARTESIAN_POINT ( 'NONE',  ( 0.0000000000000000000, 0.0000000000000000000, 0.0000000000000000000 ) ) ;
#38 = PLANE ( 'NONE',  #91 ) ;
#39 = PERSON_AND_ORGANIZATION ( #169, #188 ) ;
#40 = APPLICATION_CONTEXT ( 'configuration controlled 3d designs of mechanical parts and assemblies' ) ;
#41 = EDGE_CURVE ( 'NONE', #157, #157, #106, .T. ) ;
#42 = DATE_AND_TIME ( #113, #59 ) ;
#43 = EDGE_LOOP ( 'NONE', ( #238 ) ) ;
#44 = PERSON_AND_ORGANIZATION ( #169, #188 ) ;
#45 = AXIS2_PLACEMENT_3D ( 'NONE', #268, #251, #34 ) ;
#46 = PERSON_AND_ORGANIZATION_ROLE ( 'creator' ) ;
#47 = EDGE_LOOP ( 'NONE', ( #168 ) ) ;
#48 = CARTESIAN_POINT ( 'NONE',  ( 2.374207310413330366E-14, -8.327598234202001119E-16, 6.799999999999999822 ) ) ;
#49 = CARTESIAN_POINT ( 'NONE',  ( 0.0000000000000000000, 0.0000000000000000000, 0.0000000000000000000 ) ) ;
#50 = EDGE_LOOP ( 'NONE', ( #2 ) ) ;
#51 = SHAPE_DEFINITION_REPRESENTATION ( #101, #266 ) ;
#52 = FACE_BOUND ( 'NONE', #218, .T. ) ;
#53 = AXIS2_PLACEMENT_3D ( 'NONE', #282, #214, #96 ) ;
#54 = DIRECTION ( 'NONE',  ( -5.334985995532514703E-31, -1.000000000000000000, -1.501665058844190491E-16 ) ) ;
#55 = CIRCLE ( 'NONE', #227, 0.7499999999999984457 ) ;
#56 = VERTEX_POINT ( 'NONE', #84 ) ;
#57 = FACE_OUTER_BOUND ( 'NONE', #245, .T. ) ;
#58 = FACE_OUTER_BOUND ( 'NONE', #119, .T. ) ;
#59 = LOCAL_TIME ( 11, 17, 51.00000000000000000, #300 ) ;
#60 = AXIS2_PLACEMENT_3D ( 'NONE', #241, #220, #120 ) ;
#61 = DIRECTION ( 'NONE',  ( -3.491481338843133355E-15, 1.224646799147353207E-16, -1.000000000000000000 ) ) ;
#62 = DIRECTION ( 'NONE',  ( -3.491481338843133355E-15, 1.224646799147353207E-16, -1.000000000000000000 ) ) ;
#63 = APPROVAL_DATE_TIME ( #42, #237 ) ;
#64 = CC_DESIGN_APPROVAL ( #219, ( #107 ) ) ;
#65 = ADVANCED_FACE ( 'NONE', ( #52, #283 ), #4, .T. ) ;
#66 = EDGE_LOOP ( 'NONE', ( #138 ) ) ;
#67 = CALENDAR_DATE ( 2021, 17, 12 ) ;
#68 = CIRCLE ( 'NONE', #134, 0.7219999999999993090 ) ;
#69 = FACE_OUTER_BOUND ( 'NONE', #75, .T. ) ;
#70 = CC_DESIGN_DATE_AND_TIME_ASSIGNMENT ( #137, #159, ( #288 ) ) ;
#71 = CC_DESIGN_PERSON_AND_ORGANIZATION_ASSIGNMENT ( #87, #259, ( #146 ) ) ;
#72 = APPROVAL_PERSON_ORGANIZATION ( #244, #219, #192 ) ;
#73 = CYLINDRICAL_SURFACE ( 'NONE', #293, 0.7219999999999999751 ) ;
#74 = AXIS2_PLACEMENT_3D ( 'NONE', #49, #78, #195 ) ;
#75 = EDGE_LOOP ( 'NONE', ( #286 ) ) ;
#76 = APPROVAL_DATE_TIME ( #31, #219 ) ;
#77 = FACE_OUTER_BOUND ( 'NONE', #23, .T. ) ;
#78 = DIRECTION ( 'NONE',  ( -3.491481338843133355E-15, 1.224646799147353207E-16, -1.000000000000000000 ) ) ;
#79 = FACE_BOUND ( 'NONE', #92, .T. ) ;
#80 = CYLINDRICAL_SURFACE ( 'NONE', #108, 0.7499999999999978906 ) ;
#81 = DIRECTION ( 'NONE',  ( 4.275831445896958607E-31, 1.000000000000000000, 1.224646799147353207E-16 ) ) ;
#82 = CIRCLE ( 'NONE', #83, 0.7220000000000000862 ) ;
#83 = AXIS2_PLACEMENT_3D ( 'NONE', #48, #142, #26 ) ;
#84 = CARTESIAN_POINT ( 'NONE',  ( 1.955229549752154679E-14, 0.7219999999999991980, 5.599999999999999645 ) ) ;
#85 = CARTESIAN_POINT ( 'NONE',  ( 2.464573497024593264E-14, 0.7560741737109291094, 7.058819045102513456 ) ) ;
#86 = ADVANCED_FACE ( 'NONE', ( #215, #240 ), #73, .T. ) ;
#87 = PERSON_AND_ORGANIZATION ( #169, #188 ) ;
#88 = ORIENTED_EDGE ( 'NONE', *, *, #94, .T. ) ;
#89 = PERSON_AND_ORGANIZATION_ROLE ( 'creator' ) ;
#90 = PERSON_AND_ORGANIZATION_ROLE ( 'classification_officer' ) ;
#91 = AXIS2_PLACEMENT_3D ( 'NONE', #247, #62, #16 ) ;
#92 = EDGE_LOOP ( 'NONE', ( #165 ) ) ;
#93 = CARTESIAN_POINT ( 'NONE',  ( -1.575011816740109196E-32, 5.524397792225152088E-34, -4.511013131354650590E-18 ) ) ;
#94 = EDGE_CURVE ( 'NONE', #56, #56, #111, .T. ) ;
#95 = COORDINATED_UNIVERSAL_TIME_OFFSET ( 1, 0, .AHEAD. ) ;
#96 = DIRECTION ( 'NONE',  ( 4.275831445896958607E-31, 1.000000000000000000, 1.224646799147352961E-16 ) ) ;
#97 = FACE_OUTER_BOUND ( 'NONE', #1, .T. ) ;
#98 = CARTESIAN_POINT ( 'NONE',  ( 1.955229549752154679E-14, -6.858022075225177566E-16, 5.599999999999999645 ) ) ;
#99 = CARTESIAN_POINT ( 'NONE',  ( 0.0000000000000000000, 0.0000000000000000000, 0.0000000000000000000 ) ) ;
#100 = DIRECTION ( 'NONE',  ( 3.491481338843133355E-15, -1.224646799147353207E-16, 1.000000000000000000 ) ) ;
#101 = PRODUCT_DEFINITION_SHAPE ( 'NONE', 'NONE',  #288 ) ;
#102 = CARTESIAN_POINT ( 'NONE',  ( 5.723299190498399047E-16, -2.007463123525921264E-17, 0.1639218038150750956 ) ) ;
#103 = UNCERTAINTY_MEASURE_WITH_UNIT (LENGTH_MEASURE( 1.000000000000000082E-05 ), #131, 'distance_accuracy_value', 'NONE');
#104 = DIRECTION ( 'NONE',  ( -3.491481338843133355E-15, 1.224646799147353207E-16, -1.000000000000000000 ) ) ;
#105 = DIRECTION ( 'NONE',  ( 0.0000000000000000000, 1.000000000000000000, 0.0000000000000000000 ) ) ;
#106 = CIRCLE ( 'NONE', #147, 0.5999999999999986455 ) ;
#107 = SECURITY_CLASSIFICATION ( '', '', #204 ) ;
#108 = AXIS2_PLACEMENT_3D ( 'NONE', #37, #14, #81 ) ;
#109 = CARTESIAN_POINT ( 'NONE',  ( 2.456658614367850475E-14, 0.7499999999999963363, 7.036149920199313179 ) ) ;
#110 = APPROVAL ( #112, 'UNSPECIFIED' ) ;
#111 = CIRCLE ( 'NONE', #194, 0.7219999999999998641 ) ;
#112 = APPROVAL_STATUS ( 'not_yet_approved' ) ;
#113 = CALENDAR_DATE ( 2021, 17, 12 ) ;
#114 = EDGE_LOOP ( 'NONE', ( #88 ) ) ;
#115 = EDGE_CURVE ( 'NONE', #179, #179, #298, .T. ) ;
#116 = CC_DESIGN_PERSON_AND_ORGANIZATION_ASSIGNMENT ( #129, #230, ( #207 ) ) ;
#117 = ORIENTED_EDGE ( 'NONE', *, *, #41, .T. ) ;
#118 = CYLINDRICAL_SURFACE ( 'NONE', #74, 0.7219999999999995310 ) ;
#119 = EDGE_LOOP ( 'NONE', ( #299 ) ) ;
#120 = DIRECTION ( 'NONE',  ( 0.0000000000000000000, 1.000000000000000000, 0.0000000000000000000 ) ) ;
#121 = AXIS2_PLACEMENT_3D ( 'NONE', #27, #144, #54 ) ;
#122 = CARTESIAN_POINT ( 'NONE',  ( 9.463679131915808972E-32, 0.2949999999999999845, 2.710505431213761085E-17 ) ) ;
#123 = ADVANCED_FACE ( 'NONE', ( #29, #97 ), #118, .T. ) ;
#124 = FACE_OUTER_BOUND ( 'NONE', #25, .T. ) ;
#125 = EDGE_CURVE ( 'NONE', #295, #295, #35, .T. ) ;
#126 = DIRECTION ( 'NONE',  ( 4.275831445896958607E-31, 1.000000000000000000, 1.224646799147353207E-16 ) ) ;
#127 = FACE_OUTER_BOUND ( 'NONE', #50, .T. ) ;
#128 = DIRECTION ( 'NONE',  ( 0.0000000000000000000, 1.000000000000000000, 0.0000000000000000000 ) ) ;
#129 = PERSON_AND_ORGANIZATION ( #169, #188 ) ;
#130 = COORDINATED_UNIVERSAL_TIME_OFFSET ( 1, 0, .AHEAD. ) ;
#131 =( LENGTH_UNIT ( ) NAMED_UNIT ( * ) SI_UNIT ( .MILLI., .METRE. ) );
#132 = EDGE_LOOP ( 'NONE', ( #197 ) ) ;
#133 = AXIS2_PLACEMENT_3D ( 'NONE', #15, #104, #292 ) ;
#134 = AXIS2_PLACEMENT_3D ( 'NONE', #294, #199, #18 ) ;
#135 = CALENDAR_DATE ( 2021, 17, 12 ) ;
#136 = ORIENTED_EDGE ( 'NONE', *, *, #94, .F. ) ;
#137 = DATE_AND_TIME ( #135, #222 ) ;
#138 = ORIENTED_EDGE ( 'NONE', *, *, #173, .T. ) ;
#139 = ADVANCED_FACE ( 'NONE', ( #77 ), #170, .T. ) ;
#140 = EDGE_CURVE ( 'NONE', #150, #150, #82, .T. ) ;
#141 = CALENDAR_DATE ( 2021, 17, 12 ) ;
#142 = DIRECTION ( 'NONE',  ( -3.491481338843133355E-15, 1.224646799147353207E-16, -1.000000000000000000 ) ) ;
#143 = DIRECTION ( 'NONE',  ( 3.491481338843133355E-15, -1.224646799147353207E-16, 1.000000000000000000 ) ) ;
#144 = DIRECTION ( 'NONE',  ( 3.491481338843133355E-15, -1.224646799147353207E-16, 1.000000000000000000 ) ) ;
#145 = DIRECTION ( 'NONE',  ( -3.491481338843133355E-15, 1.224646799147353207E-16, -1.000000000000000000 ) ) ;
#146 = PRODUCT ( '305797', '305797', '', ( #252 ) ) ;
#147 = AXIS2_PLACEMENT_3D ( 'NONE', #213, #148, #193 ) ;
#148 = DIRECTION ( 'NONE',  ( -3.491481338843133355E-15, 1.224646799147353207E-16, -1.000000000000000000 ) ) ;
#149 = TOROIDAL_SURFACE ( 'NONE', #17, 1.721999999999999975, 1.000000000000000000 ) ;
#150 = VERTEX_POINT ( 'NONE', #246 ) ;
#151 = EDGE_CURVE ( 'NONE', #33, #33, #234, .T. ) ;
#152 = EDGE_CURVE ( 'NONE', #198, #198, #55, .T. ) ;
#153 = DIRECTION ( 'NONE',  ( 3.491481338843133355E-15, -1.224646799147353207E-16, 1.000000000000000000 ) ) ;
#154 = LOCAL_TIME ( 11, 17, 51.00000000000000000, #130 ) ;
#155 = FACE_OUTER_BOUND ( 'NONE', #196, .T. ) ;
#156 = CONICAL_SURFACE ( 'NONE', #45, 0.7499999999999972244, 0.2617993877991432461 ) ;
#157 = VERTEX_POINT ( 'NONE', #203 ) ;
#158 = DIRECTION ( 'NONE',  ( -3.491481338843133355E-15, 1.224646799147353207E-16, -1.000000000000000000 ) ) ;
#159 = DATE_TIME_ROLE ( 'creation_date' ) ;
#160 = AXIS2_PLACEMENT_3D ( 'NONE', #255, #233, #209 ) ;
#161 = APPROVAL_ROLE ( '' ) ;
#162 = VERTEX_POINT ( 'NONE', #297 ) ;
#163 = DATE_AND_TIME ( #67, #154 ) ;
#164 = CC_DESIGN_DATE_AND_TIME_ASSIGNMENT ( #24, #166, ( #107 ) ) ;
#165 = ORIENTED_EDGE ( 'NONE', *, *, #115, .T. ) ;
#166 = DATE_TIME_ROLE ( 'classification_date' ) ;
#167 = ORIENTED_EDGE ( 'NONE', *, *, #281, .T. ) ;
#168 = ORIENTED_EDGE ( 'NONE', *, *, #151, .F. ) ;
#169 = PERSON ( 'UNSPECIFIED', 'UNSPECIFIED', 'UNSPECIFIED', ('UNSPECIFIED'), ('UNSPECIFIED'), ('UNSPECIFIED') ) ;
#170 = PLANE ( 'NONE',  #187 ) ;
#171 = AXIS2_PLACEMENT_3D ( 'NONE', #102, #153, #221 ) ;
#172 = DIRECTION ( 'NONE',  ( -4.275831445896958607E-31, -1.000000000000000000, -1.224646799147353207E-16 ) ) ;
#173 = EDGE_CURVE ( 'NONE', #174, #174, #68, .T. ) ;
#174 = VERTEX_POINT ( 'NONE', #269 ) ;
#175 = CARTESIAN_POINT ( 'NONE',  ( 1.955229549752154679E-14, -6.858022075225177566E-16, 5.599999999999999645 ) ) ;
#176 = FACE_BOUND ( 'NONE', #284, .T. ) ;
#177 = MANIFOLD_SOLID_BREP ( 'Corps-Déplacer/Copier1[2]', #248 ) ;
#178 = CONICAL_SURFACE ( 'NONE', #171, 0.5789208926760446294, 1.047197551196592746 ) ;
#179 = VERTEX_POINT ( 'NONE', #109 ) ;
#180 = PERSON_AND_ORGANIZATION ( #169, #188 ) ;
#181 = EDGE_LOOP ( 'NONE', ( #208 ) ) ;
#182 = ADVANCED_FACE ( 'NONE', ( #250, #57 ), #178, .T. ) ;
#183 = EDGE_LOOP ( 'NONE', ( #136 ) ) ;
#184 = APPLICATION_PROTOCOL_DEFINITION ( 'international standard', 'config_control_design', 1994, #40 ) ;
#185 = ORIENTED_EDGE ( 'NONE', *, *, #249, .T. ) ;
#186 = APPROVAL_ROLE ( '' ) ;
#187 = AXIS2_PLACEMENT_3D ( 'NONE', #265, #143, #172 ) ;
#188 = ORGANIZATION ( 'UNSPECIFIED', 'UNSPECIFIED', '' ) ;
#189 = CIRCLE ( 'NONE', #133, 0.5789208926760446294 ) ;
#190 = ORIENTED_EDGE ( 'NONE', *, *, #140, .F. ) ;
#191 = DIRECTION ( 'NONE',  ( -3.491481338843133355E-15, 1.224646799147353207E-16, -1.000000000000000000 ) ) ;
#192 = APPROVAL_ROLE ( '' ) ;
#193 = DIRECTION ( 'NONE',  ( 0.0000000000000000000, 1.000000000000000000, 0.0000000000000000000 ) ) ;
#194 = AXIS2_PLACEMENT_3D ( 'NONE', #98, #191, #28 ) ;
#195 = DIRECTION ( 'NONE',  ( 4.275831445896958607E-31, 1.000000000000000000, 1.224646799147353454E-16 ) ) ;
#196 = EDGE_LOOP ( 'NONE', ( #190 ) ) ;
#197 = ORIENTED_EDGE ( 'NONE', *, *, #173, .F. ) ;
#198 = VERTEX_POINT ( 'NONE', #287 ) ;
#199 = DIRECTION ( 'NONE',  ( -3.491481338843133355E-15, 1.224646799147353207E-16, -1.000000000000000000 ) ) ;
#200 = FACE_OUTER_BOUND ( 'NONE', #114, .T. ) ;
#201 = CARTESIAN_POINT ( 'NONE',  ( 1.955229549752154679E-14, 5.414132815409295126E-33, 5.599999999999999645 ) ) ;
#202 = AXIS2_PLACEMENT_3D ( 'NONE', #201, #100, #274 ) ;
#203 = CARTESIAN_POINT ( 'NONE',  ( 1.047444401652940007E-13, 0.5999999999999949818, 30.00000000000000000 ) ) ;
#204 = SECURITY_CLASSIFICATION_LEVEL ( 'unclassified' ) ;
#205 = ADVANCED_FACE ( 'NONE', ( #224, #79 ), #156, .F. ) ;
#206 = VERTEX_POINT ( 'NONE', #232 ) ;
#207 = PRODUCT_DEFINITION_FORMATION_WITH_SPECIFIED_SOURCE ( 'ANY', '', #146, .NOT_KNOWN. ) ;
#208 = ORIENTED_EDGE ( 'NONE', *, *, #140, .T. ) ;
#209 = DIRECTION ( 'NONE',  ( 1.000000000000000000, 0.0000000000000000000, 0.0000000000000000000 ) ) ;
#210 =( NAMED_UNIT ( * ) SI_UNIT ( $, .STERADIAN. ) SOLID_ANGLE_UNIT ( ) );
#211 = ORIENTED_EDGE ( 'NONE', *, *, #152, .F. ) ;
#212 = APPROVAL_PERSON_ORGANIZATION ( #39, #110, #161 ) ;
#213 = CARTESIAN_POINT ( 'NONE',  ( 1.047444401652940007E-13, -3.673940397442059178E-15, 30.00000000000000000 ) ) ;
#214 = DIRECTION ( 'NONE',  ( -3.491481338843133355E-15, 1.224646799147353207E-16, -1.000000000000000000 ) ) ;
#215 = FACE_OUTER_BOUND ( 'NONE', #183, .T. ) ;
#216 = CONICAL_SURFACE ( 'NONE', #256, 0.5999999999999986455, 0.7853981633974450594 ) ;
#217 = LOCAL_TIME ( 11, 17, 51.00000000000000000, #296 ) ;
#218 = EDGE_LOOP ( 'NONE', ( #254 ) ) ;
#219 = APPROVAL ( #239, 'UNSPECIFIED' ) ;
#220 = DIRECTION ( 'NONE',  ( -3.491481338843133355E-15, 1.224646799147353207E-16, -1.000000000000000000 ) ) ;
#221 = DIRECTION ( 'NONE',  ( -4.990137604512808209E-31, -1.000000000000000000, -1.404598866013211412E-16 ) ) ;
#222 = LOCAL_TIME ( 11, 17, 51.00000000000000000, #302 ) ;
#223 = PLANE ( 'NONE',  #202 ) ;
#224 = FACE_OUTER_BOUND ( 'NONE', #278, .T. ) ;
#225 = DIRECTION ( 'NONE',  ( -3.491481338843133355E-15, 1.224646799147353207E-16, -1.000000000000000000 ) ) ;
#226 = APPLICATION_CONTEXT ( 'configuration controlled 3d designs of mechanical parts and assemblies' ) ;
#227 = AXIS2_PLACEMENT_3D ( 'NONE', #3, #225, #290 ) ;
#228 = CARTESIAN_POINT ( 'NONE',  ( 2.374207310413330366E-14, -8.673617379884035472E-16, 6.799999999999999822 ) ) ;
#229 = ADVANCED_FACE ( 'NONE', ( #200 ), #223, .F. ) ;
#230 = PERSON_AND_ORGANIZATION_ROLE ( 'design_supplier' ) ;
#231 = ADVANCED_FACE ( 'NONE', ( #127 ), #38, .F. ) ;
#232 = CARTESIAN_POINT ( 'NONE',  ( 5.723299190498402005E-16, 0.5789208926760446294, 0.1639218038150751788 ) ) ;
#233 = DIRECTION ( 'NONE',  ( 0.0000000000000000000, 0.0000000000000000000, 1.000000000000000000 ) ) ;
#234 = CIRCLE ( 'NONE', #53, 0.2949999999999999845 ) ;
#235 = CALENDAR_DATE ( 2021, 17, 12 ) ;
#236 = DIRECTION ( 'NONE',  ( 4.275831445896958607E-31, 1.000000000000000000, 1.224646799147353207E-16 ) ) ;
#237 = APPROVAL ( #22, 'UNSPECIFIED' ) ;
#238 = ORIENTED_EDGE ( 'NONE', *, *, #115, .F. ) ;
#239 = APPROVAL_STATUS ( 'not_yet_approved' ) ;
#240 = FACE_OUTER_BOUND ( 'NONE', #181, .T. ) ;
#241 = CARTESIAN_POINT ( 'NONE',  ( 2.464573497024593264E-14, -8.644560149345169293E-16, 7.058819045102513456 ) ) ;
#242 = CC_DESIGN_APPROVAL ( #237, ( #288 ) ) ;
#243 = CIRCLE ( 'NONE', #258, 0.7219999999999998641 ) ;
#244 = PERSON_AND_ORGANIZATION ( #169, #188 ) ;
#245 = EDGE_LOOP ( 'NONE', ( #167 ) ) ;
#246 = CARTESIAN_POINT ( 'NONE',  ( 2.374207310413330366E-14, 0.7219999999999991980, 6.799999999999999822 ) ) ;
#247 = CARTESIAN_POINT ( 'NONE',  ( 1.047444401652940007E-13, 4.499279347985507822E-33, 30.00000000000000000 ) ) ;
#248 = CLOSED_SHELL ( 'NONE', ( #10, #182, #65, #123, #139 ) ) ;
#249 = EDGE_CURVE ( 'NONE', #162, #162, #243, .T. ) ;
#250 = FACE_BOUND ( 'NONE', #47, .T. ) ;
#251 = DIRECTION ( 'NONE',  ( 3.491481338843133355E-15, -1.224646799147353207E-16, 1.000000000000000000 ) ) ;
#252 = MECHANICAL_CONTEXT ( 'NONE', #226, 'mechanical' ) ;
#253 = ORIENTED_EDGE ( 'NONE', *, *, #249, .F. ) ;
#254 = ORIENTED_EDGE ( 'NONE', *, *, #281, .F. ) ;
#255 = CARTESIAN_POINT ( 'NONE',  ( 0.0000000000000000000, 0.0000000000000000000, 0.0000000000000000000 ) ) ;
#256 = AXIS2_PLACEMENT_3D ( 'NONE', #273, #61, #105 ) ;
#257 = ORIENTED_EDGE ( 'NONE', *, *, #125, .T. ) ;
#258 = AXIS2_PLACEMENT_3D ( 'NONE', #175, #158, #128 ) ;
#259 = PERSON_AND_ORGANIZATION_ROLE ( 'design_owner' ) ;
#260 = ADVANCED_FACE ( 'NONE', ( #270, #58 ), #80, .T. ) ;
#261 = CC_DESIGN_PERSON_AND_ORGANIZATION_ASSIGNMENT ( #180, #90, ( #107 ) ) ;
#262 = PLANE ( 'NONE',  #271 ) ;
#263 = DIRECTION ( 'NONE',  ( -3.491481338843133355E-15, 1.224646799147353207E-16, -1.000000000000000000 ) ) ;
#264 = ORIENTED_EDGE ( 'NONE', *, *, #125, .F. ) ;
#265 = CARTESIAN_POINT ( 'NONE',  ( 1.955229549752154679E-14, 5.414132815409295126E-33, 5.599999999999999645 ) ) ;
#266 = ADVANCED_BREP_SHAPE_REPRESENTATION ( '305797', ( #279, #177, #160 ), #13 ) ;
#267 = CC_DESIGN_SECURITY_CLASSIFICATION ( #107, ( #207 ) ) ;
#268 = CARTESIAN_POINT ( 'NONE',  ( 2.456658614367850475E-14, -8.616798478092993046E-16, 7.036149920199313179 ) ) ;
#269 = CARTESIAN_POINT ( 'NONE',  ( 3.142333204958820020E-15, 0.7219999999999991980, 0.9000000000000000222 ) ) ;
#270 = FACE_OUTER_BOUND ( 'NONE', #43, .T. ) ;
#271 = AXIS2_PLACEMENT_3D ( 'NONE', #93, #285, #32 ) ;
#272 = AXIS2_PLACEMENT_3D ( 'NONE', #9, #263, #5 ) ;
#273 = CARTESIAN_POINT ( 'NONE',  ( 1.047444401652940007E-13, -3.673940397442059178E-15, 30.00000000000000000 ) ) ;
#274 = DIRECTION ( 'NONE',  ( -4.275831445896958607E-31, -1.000000000000000000, -1.224646799147353207E-16 ) ) ;
#275 = ADVANCED_FACE ( 'NONE', ( #155, #124 ), #149, .F. ) ;
#276 = APPLICATION_PROTOCOL_DEFINITION ( 'international standard', 'config_control_design', 1994, #226 ) ;
#277 =( NAMED_UNIT ( * ) PLANE_ANGLE_UNIT ( ) SI_UNIT ( $, .RADIAN. ) );
#278 = EDGE_LOOP ( 'NONE', ( #264 ) ) ;
#279 = MANIFOLD_SOLID_BREP ( 'Corps-Déplacer/Copier1[1]', #7 ) ;
#280 = PERSON_AND_ORGANIZATION ( #169, #188 ) ;
#281 = EDGE_CURVE ( 'NONE', #206, #206, #189, .T. ) ;
#282 = CARTESIAN_POINT ( 'NONE',  ( -3.150023633480218392E-32, 1.104879558445030418E-33, -9.022026262709301181E-18 ) ) ;
#283 = FACE_OUTER_BOUND ( 'NONE', #66, .T. ) ;
#284 = EDGE_LOOP ( 'NONE', ( #117 ) ) ;
#285 = DIRECTION ( 'NONE',  ( 3.491481338843133355E-15, -1.224646799147353207E-16, 1.000000000000000000 ) ) ;
#286 = ORIENTED_EDGE ( 'NONE', *, *, #151, .T. ) ;
#287 = CARTESIAN_POINT ( 'NONE',  ( 1.042207179644675275E-13, 0.7499999999999947820, 29.84999999999999787 ) ) ;
#288 = PRODUCT_DEFINITION ( 'UNKNOWN', '', #207, #291 ) ;
#289 = ADVANCED_FACE ( 'NONE', ( #11, #176 ), #216, .T. ) ;
#290 = DIRECTION ( 'NONE',  ( 0.0000000000000000000, 1.000000000000000000, 0.0000000000000000000 ) ) ;
#291 = DESIGN_CONTEXT ( 'detailed design', #40, 'design' ) ;
#292 = DIRECTION ( 'NONE',  ( 4.990137604512808209E-31, 1.000000000000000000, 1.404598866013211412E-16 ) ) ;
#293 = AXIS2_PLACEMENT_3D ( 'NONE', #99, #145, #236 ) ;
#294 = CARTESIAN_POINT ( 'NONE',  ( 3.142333204958819625E-15, -1.102182119232617788E-16, 0.8999999999999999112 ) ) ;
#295 = VERTEX_POINT ( 'NONE', #85 ) ;
#296 = COORDINATED_UNIVERSAL_TIME_OFFSET ( 1, 0, .AHEAD. ) ;
#297 = CARTESIAN_POINT ( 'NONE',  ( 1.955229549752154679E-14, 0.7219999999999991980, 5.599999999999999645 ) ) ;
#298 = CIRCLE ( 'NONE', #272, 0.7499999999999972244 ) ;
#299 = ORIENTED_EDGE ( 'NONE', *, *, #152, .T. ) ;
#300 = COORDINATED_UNIVERSAL_TIME_OFFSET ( 1, 0, .AHEAD. ) ;
#301 = PERSON_AND_ORGANIZATION ( #169, #188 ) ;
#302 = COORDINATED_UNIVERSAL_TIME_OFFSET ( 1, 0, .AHEAD. ) ;
#303 = LOCAL_TIME ( 11, 17, 51.00000000000000000, #95 ) ;
ENDSEC;
END-ISO-10303-21;
