ISO-10303-21;
HEADER;
FILE_DESCRIPTION (( 'STEP AP203' ),
    '1' );
FILE_NAME ('305796.step',
    '2021-12-17T10:17:51',
    ( '' ),
    ( '' ),
    'SwSTEP 2.0',
    'SolidWorks 2019',
    '' );
FILE_SCHEMA (( 'CONFIG_CONTROL_DESIGN' ));
ENDSEC;

DATA;
#1 = ORIENTED_EDGE ( 'NONE', *, *, #245, .T. ) ;
#2 = SECURITY_CLASSIFICATION_LEVEL ( 'unclassified' ) ;
#3 = APPROVAL_STATUS ( 'not_yet_approved' ) ;
#4 = CC_DESIGN_APPROVAL ( #172, ( #223 ) ) ;
#5 = COORDINATED_UNIVERSAL_TIME_OFFSET ( 1, 0, .AHEAD. ) ;
#6 = AXIS2_PLACEMENT_3D ( 'NONE', #247, #179, #32 ) ;
#7 = ORIENTED_EDGE ( 'NONE', *, *, #140, .F. ) ;
#8 = APPROVAL_DATE_TIME ( #28, #172 ) ;
#9 = EDGE_LOOP ( 'NONE', ( #125 ) ) ;
#10 = DIRECTION ( 'NONE',  ( -3.491481338843133355E-15, 1.224646799147353207E-16, -1.000000000000000000 ) ) ;
#11 = FACE_BOUND ( 'NONE', #9, .T. ) ;
#12 = FACE_OUTER_BOUND ( 'NONE', #46, .T. ) ;
#13 = PRODUCT_DEFINITION_SHAPE ( 'NONE', 'NONE',  #104 ) ;
#14 = FACE_BOUND ( 'NONE', #210, .T. ) ;
#15 = CARTESIAN_POINT ( 'NONE',  ( 2.325469111551783415E-14, -8.156647644926397258E-16, 6.660408250448515588 ) ) ;
#16 = ADVANCED_FACE ( 'NONE', ( #165 ), #235, .F. ) ;
#17 = VERTEX_POINT ( 'NONE', #302 ) ;
#18 = EDGE_CURVE ( 'NONE', #40, #40, #107, .T. ) ;
#19 = APPROVAL_PERSON_ORGANIZATION ( #142, #172, #260 ) ;
#20 = DIRECTION ( 'NONE',  ( -3.491481338843133355E-15, 1.224646799147353207E-16, -1.000000000000000000 ) ) ;
#21 = APPROVAL_DATE_TIME ( #70, #281 ) ;
#22 = CIRCLE ( 'NONE', #293, 0.6429734677808711663 ) ;
#23 = MANIFOLD_SOLID_BREP ( 'Corps-Déplacer/Copier1[2]', #268 ) ;
#24 = APPROVAL_STATUS ( 'not_yet_approved' ) ;
#25 = CC_DESIGN_APPROVAL ( #110, ( #175 ) ) ;
#26 = CARTESIAN_POINT ( 'NONE',  ( 0.0000000000000000000, 0.0000000000000000000, 0.0000000000000000000 ) ) ;
#27 = CARTESIAN_POINT ( 'NONE',  ( 1.047444401652940007E-13, 4.499279347985507822E-33, 30.00000000000000000 ) ) ;
#28 = DATE_AND_TIME ( #72, #161 ) ;
#29 = ADVANCED_FACE ( 'NONE', ( #73 ), #220, .T. ) ;
#30 = ADVANCED_FACE ( 'NONE', ( #80 ), #203, .F. ) ;
#31 = ORIENTED_EDGE ( 'NONE', *, *, #303, .T. ) ;
#32 = DIRECTION ( 'NONE',  ( 0.0000000000000000000, 1.000000000000000000, 0.0000000000000000000 ) ) ;
#33 = CC_DESIGN_APPROVAL ( #281, ( #104 ) ) ;
#34 = DIRECTION ( 'NONE',  ( -4.493023524829806239E-31, -1.000000000000000000, -1.264673692011899241E-16 ) ) ;
#35 = FACE_OUTER_BOUND ( 'NONE', #95, .T. ) ;
#36 = DIRECTION ( 'NONE',  ( 4.275831445896958607E-31, 1.000000000000000000, 1.224646799147353207E-16 ) ) ;
#37 = CARTESIAN_POINT ( 'NONE',  ( -2.978869524392247384E-32, 1.044846778225460107E-33, -8.531821411307513918E-18 ) ) ;
#38 = CC_DESIGN_PERSON_AND_ORGANIZATION_ASSIGNMENT ( #53, #67, ( #102 ) ) ;
#39 = ADVANCED_FACE ( 'NONE', ( #14, #156 ), #136, .T. ) ;
#40 = VERTEX_POINT ( 'NONE', #162 ) ;
#41 = AXIS2_PLACEMENT_3D ( 'NONE', #200, #128, #36 ) ;
#42 = LOCAL_TIME ( 11, 17, 51.00000000000000000, #5 ) ;
#43 = DIRECTION ( 'NONE',  ( 0.0000000000000000000, 1.000000000000000000, 0.0000000000000000000 ) ) ;
#44 = EDGE_LOOP ( 'NONE', ( #148 ) ) ;
#45 = VERTEX_POINT ( 'NONE', #139 ) ;
#46 = EDGE_LOOP ( 'NONE', ( #51 ) ) ;
#47 = PERSON_AND_ORGANIZATION ( #231, #92 ) ;
#48 = DATE_AND_TIME ( #74, #190 ) ;
#49 = CALENDAR_DATE ( 2021, 17, 12 ) ;
#50 = DATE_AND_TIME ( #49, #192 ) ;
#51 = ORIENTED_EDGE ( 'NONE', *, *, #85, .T. ) ;
#52 = AXIS2_PLACEMENT_3D ( 'NONE', #82, #222, #111 ) ;
#53 = PERSON_AND_ORGANIZATION ( #231, #92 ) ;
#54 = CARTESIAN_POINT ( 'NONE',  ( 1.955229549752154679E-14, -6.858022075225177566E-16, 5.599999999999999645 ) ) ;
#55 = CONICAL_SURFACE ( 'NONE', #6, 0.5999999999999986455, 0.7853981633974450594 ) ;
#56 = FACE_OUTER_BOUND ( 'NONE', #163, .T. ) ;
#57 = CARTESIAN_POINT ( 'NONE',  ( 0.0000000000000000000, 0.0000000000000000000, 0.0000000000000000000 ) ) ;
#58 = AXIS2_PLACEMENT_3D ( 'NONE', #54, #98, #287 ) ;
#59 = DIRECTION ( 'NONE',  ( 4.493023524829806239E-31, 1.000000000000000000, 1.264673692011899241E-16 ) ) ;
#60 = CYLINDRICAL_SURFACE ( 'NONE', #209, 0.7155000000000000249 ) ;
#61 = CARTESIAN_POINT ( 'NONE',  ( 1.042207179644675275E-13, -3.655570695454848748E-15, 29.84999999999999787 ) ) ;
#62 = AXIS2_PLACEMENT_3D ( 'NONE', #178, #242, #34 ) ;
#63 = CARTESIAN_POINT ( 'NONE',  ( 2.324914243470868876E-14, -8.154701429686231067E-16, 6.658819045102515766 ) ) ;
#64 = CARTESIAN_POINT ( 'NONE',  ( 2.094888803305880013E-15, 0.7154999999999993587, 0.6000000000000000888 ) ) ;
#65 = ORIENTED_EDGE ( 'NONE', *, *, #18, .T. ) ;
#66 = ORIENTED_EDGE ( 'NONE', *, *, #300, .T. ) ;
#67 = PERSON_AND_ORGANIZATION_ROLE ( 'design_owner' ) ;
#68 = ADVANCED_FACE ( 'NONE', ( #244, #218 ), #60, .T. ) ;
#69 = ADVANCED_FACE ( 'NONE', ( #265, #11 ), #55, .T. ) ;
#70 = DATE_AND_TIME ( #96, #94 ) ;
#71 = CIRCLE ( 'NONE', #240, 0.2500000000000000555 ) ;
#72 = CALENDAR_DATE ( 2021, 17, 12 ) ;
#73 = FACE_OUTER_BOUND ( 'NONE', #115, .T. ) ;
#74 = CALENDAR_DATE ( 2021, 17, 12 ) ;
#75 = DIRECTION ( 'NONE',  ( -3.491481338843133355E-15, 1.224646799147353207E-16, -1.000000000000000000 ) ) ;
#76 = AXIS2_PLACEMENT_3D ( 'NONE', #270, #10, #154 ) ;
#77 = DIRECTION ( 'NONE',  ( 3.491481338843133355E-15, -1.224646799147353207E-16, 1.000000000000000000 ) ) ;
#78 = DIRECTION ( 'NONE',  ( 3.491481338843133355E-15, -1.224646799147353207E-16, 1.000000000000000000 ) ) ;
#79 = APPROVAL_PERSON_ORGANIZATION ( #262, #281, #230 ) ;
#80 = FACE_OUTER_BOUND ( 'NONE', #44, .T. ) ;
#81 = CIRCLE ( 'NONE', #116, 0.7499999999999972244 ) ;
#82 = CARTESIAN_POINT ( 'NONE',  ( 2.094888803305879619E-15, -7.347880794884117764E-17, 0.5999999999999999778 ) ) ;
#83 = ADVANCED_FACE ( 'NONE', ( #272 ), #289, .F. ) ;
#84 = CARTESIAN_POINT ( 'NONE',  ( 0.0000000000000000000, 0.0000000000000000000, 0.0000000000000000000 ) ) ;
#85 = EDGE_CURVE ( 'NONE', #251, #251, #221, .T. ) ;
#86 = VERTEX_POINT ( 'NONE', #137 ) ;
#87 = AXIS2_PLACEMENT_3D ( 'NONE', #239, #106, #129 ) ;
#88 = CARTESIAN_POINT ( 'NONE',  ( 1.047444401652940007E-13, -3.673940397442059178E-15, 30.00000000000000000 ) ) ;
#89 = CARTESIAN_POINT ( 'NONE',  ( -5.957739048784494767E-32, 2.089693556450920215E-33, -1.706364282261502784E-17 ) ) ;
#90 = EDGE_LOOP ( 'NONE', ( #238 ) ) ;
#91 = DIRECTION ( 'NONE',  ( -3.491481338843133355E-15, 1.224646799147353207E-16, -1.000000000000000000 ) ) ;
#92 = ORGANIZATION ( 'UNSPECIFIED', 'UNSPECIFIED', '' ) ;
#93 = ORIENTED_EDGE ( 'NONE', *, *, #290, .F. ) ;
#94 = LOCAL_TIME ( 11, 17, 51.00000000000000000, #166 ) ;
#95 = EDGE_LOOP ( 'NONE', ( #141 ) ) ;
#96 = CALENDAR_DATE ( 2021, 17, 12 ) ;
#97 = DATE_AND_TIME ( #194, #42 ) ;
#98 = DIRECTION ( 'NONE',  ( -3.491481338843133355E-15, 1.224646799147353207E-16, -1.000000000000000000 ) ) ;
#99 = APPLICATION_PROTOCOL_DEFINITION ( 'international standard', 'config_control_design', 1994, #185 ) ;
#100 = ORIENTED_EDGE ( 'NONE', *, *, #300, .F. ) ;
#101 = DIRECTION ( 'NONE',  ( 3.491481338843133355E-15, -1.224646799147353207E-16, 1.000000000000000000 ) ) ;
#102 = PRODUCT ( '305796', '305796', '', ( #283 ) ) ;
#103 = CYLINDRICAL_SURFACE ( 'NONE', #246, 0.7154999999999998028 ) ;
#104 = PRODUCT_DEFINITION ( 'UNKNOWN', '', #223, #177 ) ;
#105 = DIRECTION ( 'NONE',  ( 4.275831445896957731E-31, 1.000000000000000000, 1.224646799147353207E-16 ) ) ;
#106 = DIRECTION ( 'NONE',  ( 3.491481338843133355E-15, -1.224646799147353207E-16, 1.000000000000000000 ) ) ;
#107 = CIRCLE ( 'NONE', #58, 0.7155000000000000249 ) ;
#108 = AXIS2_PLACEMENT_3D ( 'NONE', #301, #91, #249 ) ;
#109 = EDGE_CURVE ( 'NONE', #86, #86, #170, .T. ) ;
#110 = APPROVAL ( #24, 'UNSPECIFIED' ) ;
#111 = DIRECTION ( 'NONE',  ( -5.383451975925191325E-31, -1.000000000000000000, -1.515307019546478253E-16 ) ) ;
#112 = VERTEX_POINT ( 'NONE', #159 ) ;
#113 = EDGE_LOOP ( 'NONE', ( #228 ) ) ;
#114 = VERTEX_POINT ( 'NONE', #64 ) ;
#115 = EDGE_LOOP ( 'NONE', ( #195 ) ) ;
#116 = AXIS2_PLACEMENT_3D ( 'NONE', #15, #152, #155 ) ;
#117 = ADVANCED_FACE ( 'NONE', ( #291, #12 ), #264, .T. ) ;
#118 = COORDINATED_UNIVERSAL_TIME_OFFSET ( 1, 0, .AHEAD. ) ;
#119 = COORDINATED_UNIVERSAL_TIME_OFFSET ( 1, 0, .AHEAD. ) ;
#120 = APPROVAL_ROLE ( '' ) ;
#121 = AXIS2_PLACEMENT_3D ( 'NONE', #297, #101, #199 ) ;
#122 = TOROIDAL_SURFACE ( 'NONE', #108, 1.715500000000000025, 1.000000000000000222 ) ;
#123 = DIRECTION ( 'NONE',  ( 4.275831445896958607E-31, 1.000000000000000000, 1.224646799147353207E-16 ) ) ;
#124 = EDGE_LOOP ( 'NONE', ( #227 ) ) ;
#125 = ORIENTED_EDGE ( 'NONE', *, *, #241, .T. ) ;
#126 = CC_DESIGN_PERSON_AND_ORGANIZATION_ASSIGNMENT ( #47, #211, ( #223 ) ) ;
#127 = ADVANCED_FACE ( 'NONE', ( #56, #151 ), #103, .T. ) ;
#128 = DIRECTION ( 'NONE',  ( -3.491481338843133355E-15, 1.224646799147353207E-16, -1.000000000000000000 ) ) ;
#129 = DIRECTION ( 'NONE',  ( -4.275831445896958607E-31, -1.000000000000000000, -1.224646799147353207E-16 ) ) ;
#130 = FACE_OUTER_BOUND ( 'NONE', #237, .T. ) ;
#131 = CARTESIAN_POINT ( 'NONE',  ( 7.921589386533274938E-16, -2.778519529361711042E-17, 0.2268833374076692777 ) ) ;
#132 = DIRECTION ( 'NONE',  ( -3.491481338843133355E-15, 1.224646799147353207E-16, -1.000000000000000000 ) ) ;
#133 = DIRECTION ( 'NONE',  ( -3.491481338843133355E-15, 1.224646799147353207E-16, -1.000000000000000000 ) ) ;
#134 =( NAMED_UNIT ( * ) PLANE_ANGLE_UNIT ( ) SI_UNIT ( $, .RADIAN. ) );
#135 = CC_DESIGN_SECURITY_CLASSIFICATION ( #175, ( #223 ) ) ;
#136 = CONICAL_SURFACE ( 'NONE', #121, 0.7499999999999972244, 0.2617993877993080587 ) ;
#137 = CARTESIAN_POINT ( 'NONE',  ( 2.234548056859605347E-14, 0.7154999999999993587, 6.400000000000000355 ) ) ;
#138 = EDGE_LOOP ( 'NONE', ( #93 ) ) ;
#139 = CARTESIAN_POINT ( 'NONE',  ( 2.324914243470868876E-14, 0.7495741737109282710, 6.658819045102515766 ) ) ;
#140 = EDGE_CURVE ( 'NONE', #17, #17, #81, .T. ) ;
#141 = ORIENTED_EDGE ( 'NONE', *, *, #213, .T. ) ;
#142 = PERSON_AND_ORGANIZATION ( #231, #92 ) ;
#143 = PERSON_AND_ORGANIZATION ( #231, #92 ) ;
#144 = DATE_TIME_ROLE ( 'classification_date' ) ;
#145 = AXIS2_PLACEMENT_3D ( 'NONE', #27, #75, #123 ) ;
#146 = APPROVAL_STATUS ( 'not_yet_approved' ) ;
#147 = AXIS2_PLACEMENT_3D ( 'NONE', #277, #132, #204 ) ;
#148 = ORIENTED_EDGE ( 'NONE', *, *, #290, .T. ) ;
#149 = ORIENTED_EDGE ( 'NONE', *, *, #109, .T. ) ;
#150 = CC_DESIGN_PERSON_AND_ORGANIZATION_ASSIGNMENT ( #214, #259, ( #104 ) ) ;
#151 = FACE_OUTER_BOUND ( 'NONE', #216, .T. ) ;
#152 = DIRECTION ( 'NONE',  ( -3.491481338843133355E-15, 1.224646799147353207E-16, -1.000000000000000000 ) ) ;
#153 = AXIS2_PLACEMENT_3D ( 'NONE', #26, #168, #212 ) ;
#154 = DIRECTION ( 'NONE',  ( 0.0000000000000000000, 1.000000000000000000, 0.0000000000000000000 ) ) ;
#155 = DIRECTION ( 'NONE',  ( 0.0000000000000000000, 1.000000000000000000, 0.0000000000000000000 ) ) ;
#156 = FACE_OUTER_BOUND ( 'NONE', #276, .T. ) ;
#157 = FACE_OUTER_BOUND ( 'NONE', #90, .T. ) ;
#158 = PRODUCT_RELATED_PRODUCT_CATEGORY ( 'detail', '', ( #102 ) ) ;
#159 = CARTESIAN_POINT ( 'NONE',  ( 7.921589386533277896E-16, 0.6429734677808711663, 0.2268833374076693610 ) ) ;
#160 = CIRCLE ( 'NONE', #147, 0.7154999999999994698 ) ;
#161 = LOCAL_TIME ( 11, 17, 51.00000000000000000, #236 ) ;
#162 = CARTESIAN_POINT ( 'NONE',  ( 1.955229549752154679E-14, 0.7154999999999993587, 5.599999999999999645 ) ) ;
#163 = EDGE_LOOP ( 'NONE', ( #288 ) ) ;
#164 = CARTESIAN_POINT ( 'NONE',  ( 1.042207179644675275E-13, 0.7499999999999947820, 29.84999999999999787 ) ) ;
#165 = FACE_OUTER_BOUND ( 'NONE', #113, .T. ) ;
#166 = COORDINATED_UNIVERSAL_TIME_OFFSET ( 1, 0, .AHEAD. ) ;
#167 = DATE_TIME_ROLE ( 'creation_date' ) ;
#168 = DIRECTION ( 'NONE',  ( 0.0000000000000000000, 0.0000000000000000000, 1.000000000000000000 ) ) ;
#169 = EDGE_LOOP ( 'NONE', ( #66 ) ) ;
#170 = CIRCLE ( 'NONE', #76, 0.7155000000000001359 ) ;
#171 = PERSON_AND_ORGANIZATION_ROLE ( 'creator' ) ;
#172 = APPROVAL ( #146, 'UNSPECIFIED' ) ;
#173 = DIRECTION ( 'NONE',  ( -4.275831445896958607E-31, -1.000000000000000000, -1.224646799147353207E-16 ) ) ;
#174 = DIRECTION ( 'NONE',  ( -3.491481338843133355E-15, 1.224646799147353207E-16, -1.000000000000000000 ) ) ;
#175 = SECURITY_CLASSIFICATION ( '', '', #2 ) ;
#176 = FACE_BOUND ( 'NONE', #124, .T. ) ;
#177 = DESIGN_CONTEXT ( 'detailed design', #185, 'design' ) ;
#178 = CARTESIAN_POINT ( 'NONE',  ( 7.921589386533274938E-16, -2.778519529361711042E-17, 0.2268833374076692777 ) ) ;
#179 = DIRECTION ( 'NONE',  ( -3.491481338843133355E-15, 1.224646799147353207E-16, -1.000000000000000000 ) ) ;
#180 = CARTESIAN_POINT ( 'NONE',  ( 1.955229549752154679E-14, -6.858022075225177566E-16, 5.599999999999999645 ) ) ;
#181 = ADVANCED_FACE ( 'NONE', ( #176, #35 ), #197, .T. ) ;
#182 = DIRECTION ( 'NONE',  ( -3.491481338843133355E-15, 1.224646799147353207E-16, -1.000000000000000000 ) ) ;
#183 = VERTEX_POINT ( 'NONE', #254 ) ;
#184 = EDGE_LOOP ( 'NONE', ( #149 ) ) ;
#185 = APPLICATION_CONTEXT ( 'configuration controlled 3d designs of mechanical parts and assemblies' ) ;
#186 = CARTESIAN_POINT ( 'NONE',  ( 1.047444401652940007E-13, 0.5999999999999949818, 30.00000000000000000 ) ) ;
#187 = CIRCLE ( 'NONE', #215, 0.5999999999999986455 ) ;
#188 = AXIS2_PLACEMENT_3D ( 'NONE', #219, #77, #173 ) ;
#189 = ORIENTED_EDGE ( 'NONE', *, *, #140, .T. ) ;
#190 = LOCAL_TIME ( 11, 17, 51.00000000000000000, #118 ) ;
#191 = DIRECTION ( 'NONE',  ( 0.0000000000000000000, 1.000000000000000000, 0.0000000000000000000 ) ) ;
#192 = LOCAL_TIME ( 11, 17, 51.00000000000000000, #119 ) ;
#193 = APPROVAL_DATE_TIME ( #97, #110 ) ;
#194 = CALENDAR_DATE ( 2021, 17, 12 ) ;
#195 = ORIENTED_EDGE ( 'NONE', *, *, #18, .F. ) ;
#196 = PERSON_AND_ORGANIZATION ( #231, #92 ) ;
#197 = CONICAL_SURFACE ( 'NONE', #62, 0.6429734677808711663, 1.047197551196592746 ) ;
#198 = DIRECTION ( 'NONE',  ( -4.275831445896958607E-31, -1.000000000000000000, -1.224646799147353207E-16 ) ) ;
#199 = DIRECTION ( 'NONE',  ( 0.0000000000000000000, -1.000000000000000000, 0.0000000000000000000 ) ) ;
#200 = CARTESIAN_POINT ( 'NONE',  ( 0.0000000000000000000, 0.0000000000000000000, 0.0000000000000000000 ) ) ;
#201 =( GEOMETRIC_REPRESENTATION_CONTEXT ( 3 ) GLOBAL_UNCERTAINTY_ASSIGNED_CONTEXT ( ( #266 ) ) GLOBAL_UNIT_ASSIGNED_CONTEXT ( ( #208, #134, #225 ) ) REPRESENTATION_CONTEXT ( 'NONE', 'WORKASPACE' ) );
#202 = DIRECTION ( 'NONE',  ( -3.491481338843133355E-15, 1.224646799147353207E-16, -1.000000000000000000 ) ) ;
#203 = PLANE ( 'NONE',  #188 ) ;
#204 = DIRECTION ( 'NONE',  ( 5.383451975925191325E-31, 1.000000000000000000, 1.515307019546478253E-16 ) ) ;
#205 = VERTEX_POINT ( 'NONE', #275 ) ;
#206 = CONICAL_SURFACE ( 'NONE', #52, 0.7154999999999994698, 0.1919862177193691621 ) ;
#207 = EDGE_LOOP ( 'NONE', ( #263 ) ) ;
#208 =( LENGTH_UNIT ( ) NAMED_UNIT ( * ) SI_UNIT ( .MILLI., .METRE. ) );
#209 = AXIS2_PLACEMENT_3D ( 'NONE', #84, #174, #105 ) ;
#210 = EDGE_LOOP ( 'NONE', ( #100 ) ) ;
#211 = PERSON_AND_ORGANIZATION_ROLE ( 'design_supplier' ) ;
#212 = DIRECTION ( 'NONE',  ( 1.000000000000000000, 0.0000000000000000000, 0.0000000000000000000 ) ) ;
#213 = EDGE_CURVE ( 'NONE', #112, #112, #22, .T. ) ;
#214 = PERSON_AND_ORGANIZATION ( #231, #92 ) ;
#215 = AXIS2_PLACEMENT_3D ( 'NONE', #88, #20, #273 ) ;
#216 = EDGE_LOOP ( 'NONE', ( #65 ) ) ;
#217 = DIRECTION ( 'NONE',  ( 0.0000000000000000000, 1.000000000000000000, 0.0000000000000000000 ) ) ;
#218 = FACE_OUTER_BOUND ( 'NONE', #184, .T. ) ;
#219 = CARTESIAN_POINT ( 'NONE',  ( 1.955229549752154679E-14, 5.365390622472786588E-33, 5.599999999999999645 ) ) ;
#220 = PLANE ( 'NONE',  #87 ) ;
#221 = CIRCLE ( 'NONE', #299, 0.7499999999999984457 ) ;
#222 = DIRECTION ( 'NONE',  ( 3.491481338843133355E-15, -1.224646799147353207E-16, 1.000000000000000000 ) ) ;
#223 = PRODUCT_DEFINITION_FORMATION_WITH_SPECIFIED_SOURCE ( 'ANY', '', #102, .NOT_KNOWN. ) ;
#224 = CC_DESIGN_DATE_AND_TIME_ASSIGNMENT ( #48, #167, ( #104 ) ) ;
#225 =( NAMED_UNIT ( * ) SI_UNIT ( $, .STERADIAN. ) SOLID_ANGLE_UNIT ( ) );
#226 = VERTEX_POINT ( 'NONE', #186 ) ;
#227 = ORIENTED_EDGE ( 'NONE', *, *, #303, .F. ) ;
#228 = ORIENTED_EDGE ( 'NONE', *, *, #241, .F. ) ;
#229 = MANIFOLD_SOLID_BREP ( 'Corps-Déplacer/Copier1[1]', #285 ) ;
#230 = APPROVAL_ROLE ( '' ) ;
#231 = PERSON ( 'UNSPECIFIED', 'UNSPECIFIED', 'UNSPECIFIED', ('UNSPECIFIED'), ('UNSPECIFIED'), ('UNSPECIFIED') ) ;
#232 = ADVANCED_FACE ( 'NONE', ( #243, #130 ), #206, .T. ) ;
#233 = PERSON_AND_ORGANIZATION_ROLE ( 'classification_officer' ) ;
#234 = PERSON_AND_ORGANIZATION ( #231, #92 ) ;
#235 = PLANE ( 'NONE',  #145 ) ;
#236 = COORDINATED_UNIVERSAL_TIME_OFFSET ( 1, 0, .AHEAD. ) ;
#237 = EDGE_LOOP ( 'NONE', ( #1 ) ) ;
#238 = ORIENTED_EDGE ( 'NONE', *, *, #109, .F. ) ;
#239 = CARTESIAN_POINT ( 'NONE',  ( 1.955229549752154679E-14, 5.365390622472786588E-33, 5.599999999999999645 ) ) ;
#240 = AXIS2_PLACEMENT_3D ( 'NONE', #89, #133, #248 ) ;
#241 = EDGE_CURVE ( 'NONE', #226, #226, #187, .T. ) ;
#242 = DIRECTION ( 'NONE',  ( 3.491481338843133355E-15, -1.224646799147353207E-16, 1.000000000000000000 ) ) ;
#243 = FACE_BOUND ( 'NONE', #207, .T. ) ;
#244 = FACE_OUTER_BOUND ( 'NONE', #138, .T. ) ;
#245 = EDGE_CURVE ( 'NONE', #114, #114, #160, .T. ) ;
#246 = AXIS2_PLACEMENT_3D ( 'NONE', #57, #292, #296 ) ;
#247 = CARTESIAN_POINT ( 'NONE',  ( 1.047444401652940007E-13, -3.673940397442059178E-15, 30.00000000000000000 ) ) ;
#248 = DIRECTION ( 'NONE',  ( 4.275831445896958607E-31, 1.000000000000000000, 1.224646799147353207E-16 ) ) ;
#249 = DIRECTION ( 'NONE',  ( 4.275831445896958607E-31, 1.000000000000000000, 1.224646799147353207E-16 ) ) ;
#250 = CIRCLE ( 'NONE', #252, 0.7155000000000000249 ) ;
#251 = VERTEX_POINT ( 'NONE', #164 ) ;
#252 = AXIS2_PLACEMENT_3D ( 'NONE', #180, #182, #43 ) ;
#253 = EDGE_LOOP ( 'NONE', ( #7 ) ) ;
#254 = CARTESIAN_POINT ( 'NONE',  ( 1.955229549752154679E-14, 0.7154999999999993587, 5.599999999999999645 ) ) ;
#255 = ORIENTED_EDGE ( 'NONE', *, *, #85, .F. ) ;
#256 = APPLICATION_CONTEXT ( 'configuration controlled 3d designs of mechanical parts and assemblies' ) ;
#257 = CC_DESIGN_PERSON_AND_ORGANIZATION_ASSIGNMENT ( #143, #233, ( #175 ) ) ;
#258 = ADVANCED_FACE ( 'NONE', ( #157, #274 ), #122, .F. ) ;
#259 = PERSON_AND_ORGANIZATION_ROLE ( 'creator' ) ;
#260 = APPROVAL_ROLE ( '' ) ;
#261 = EDGE_LOOP ( 'NONE', ( #255 ) ) ;
#262 = PERSON_AND_ORGANIZATION ( #231, #92 ) ;
#263 = ORIENTED_EDGE ( 'NONE', *, *, #213, .F. ) ;
#264 = CYLINDRICAL_SURFACE ( 'NONE', #41, 0.7499999999999978906 ) ;
#265 = FACE_OUTER_BOUND ( 'NONE', #261, .T. ) ;
#266 = UNCERTAINTY_MEASURE_WITH_UNIT (LENGTH_MEASURE( 1.000000000000000082E-05 ), #208, 'distance_accuracy_value', 'NONE');
#267 = APPROVAL_PERSON_ORGANIZATION ( #234, #110, #120 ) ;
#268 = CLOSED_SHELL ( 'NONE', ( #83, #181, #232, #127, #29 ) ) ;
#269 = DIRECTION ( 'NONE',  ( -3.491481338843133355E-15, 1.224646799147353207E-16, -1.000000000000000000 ) ) ;
#270 = CARTESIAN_POINT ( 'NONE',  ( 2.234548056859605347E-14, -7.837739514543060920E-16, 6.400000000000000355 ) ) ;
#271 = CC_DESIGN_DATE_AND_TIME_ASSIGNMENT ( #50, #144, ( #175 ) ) ;
#272 = FACE_OUTER_BOUND ( 'NONE', #280, .T. ) ;
#273 = DIRECTION ( 'NONE',  ( 0.0000000000000000000, 1.000000000000000000, 0.0000000000000000000 ) ) ;
#274 = FACE_OUTER_BOUND ( 'NONE', #169, .T. ) ;
#275 = CARTESIAN_POINT ( 'NONE',  ( 4.731839565957904486E-32, 0.2500000000000000555, 1.355252715606880543E-17 ) ) ;
#276 = EDGE_LOOP ( 'NONE', ( #189 ) ) ;
#277 = CARTESIAN_POINT ( 'NONE',  ( 2.094888803305879619E-15, -7.347880794884117764E-17, 0.5999999999999999778 ) ) ;
#278 = AXIS2_PLACEMENT_3D ( 'NONE', #37, #78, #198 ) ;
#279 = AXIS2_PLACEMENT_3D ( 'NONE', #63, #298, #191 ) ;
#280 = EDGE_LOOP ( 'NONE', ( #31 ) ) ;
#281 = APPROVAL ( #3, 'UNSPECIFIED' ) ;
#282 = CC_DESIGN_PERSON_AND_ORGANIZATION_ASSIGNMENT ( #196, #171, ( #223 ) ) ;
#283 = MECHANICAL_CONTEXT ( 'NONE', #256, 'mechanical' ) ;
#284 = APPLICATION_PROTOCOL_DEFINITION ( 'international standard', 'config_control_design', 1994, #256 ) ;
#285 = CLOSED_SHELL ( 'NONE', ( #30, #68, #258, #39, #117, #69, #16 ) ) ;
#286 = SHAPE_DEFINITION_REPRESENTATION ( #13, #294 ) ;
#287 = DIRECTION ( 'NONE',  ( 0.0000000000000000000, 1.000000000000000000, 0.0000000000000000000 ) ) ;
#288 = ORIENTED_EDGE ( 'NONE', *, *, #245, .F. ) ;
#289 = PLANE ( 'NONE',  #278 ) ;
#290 = EDGE_CURVE ( 'NONE', #183, #183, #250, .T. ) ;
#291 = FACE_OUTER_BOUND ( 'NONE', #253, .T. ) ;
#292 = DIRECTION ( 'NONE',  ( -3.491481338843133355E-15, 1.224646799147353207E-16, -1.000000000000000000 ) ) ;
#293 = AXIS2_PLACEMENT_3D ( 'NONE', #131, #269, #59 ) ;
#294 = ADVANCED_BREP_SHAPE_REPRESENTATION ( '305796', ( #229, #23, #153 ), #201 ) ;
#295 = CIRCLE ( 'NONE', #279, 0.7495741737109291591 ) ;
#296 = DIRECTION ( 'NONE',  ( 4.275831445896958607E-31, 1.000000000000000000, 1.224646799147353207E-16 ) ) ;
#297 = CARTESIAN_POINT ( 'NONE',  ( 2.325469111551783415E-14, -8.156647644926397258E-16, 6.660408250448515588 ) ) ;
#298 = DIRECTION ( 'NONE',  ( -3.491481338843133355E-15, 1.224646799147353207E-16, -1.000000000000000000 ) ) ;
#299 = AXIS2_PLACEMENT_3D ( 'NONE', #61, #202, #217 ) ;
#300 = EDGE_CURVE ( 'NONE', #45, #45, #295, .T. ) ;
#301 = CARTESIAN_POINT ( 'NONE',  ( 2.234548056859605663E-14, -8.673617379884035472E-16, 6.400000000000001243 ) ) ;
#302 = CARTESIAN_POINT ( 'NONE',  ( 2.325469111551783415E-14, 0.7499999999999963363, 6.660408250448515588 ) ) ;
#303 = EDGE_CURVE ( 'NONE', #205, #205, #71, .T. ) ;
ENDSEC;
END-ISO-10303-21;
