ISO-10303-21;
HEADER;
FILE_DESCRIPTION (( 'STEP AP203' ),
    '1' );
FILE_NAME ('305795.step',
    '2021-12-17T10:17:50',
    ( '' ),
    ( '' ),
    'SwSTEP 2.0',
    'SolidWorks 2019',
    '' );
FILE_SCHEMA (( 'CONFIG_CONTROL_DESIGN' ));
ENDSEC;

DATA;
#1 = FACE_OUTER_BOUND ( 'NONE', #134, .T. ) ;
#2 = EDGE_LOOP ( 'NONE', ( #185 ) ) ;
#3 = CIRCLE ( 'NONE', #239, 0.6189999999999994396 ) ;
#4 = LOCAL_TIME ( 11, 17, 50.00000000000000000, #65 ) ;
#5 = CARTESIAN_POINT ( 'NONE',  ( 1.675911042644703695E-14, -5.878304635907294211E-16, 4.799999999999999822 ) ) ;
#6 = FACE_OUTER_BOUND ( 'NONE', #94, .T. ) ;
#7 = DIRECTION ( 'NONE',  ( -4.275831445896958607E-31, -1.000000000000000000, -1.224646799147353207E-16 ) ) ;
#8 = DIRECTION ( 'NONE',  ( 4.275831445896958607E-31, 1.000000000000000000, 1.224646799147353207E-16 ) ) ;
#9 = DESIGN_CONTEXT ( 'detailed design', #244, 'design' ) ;
#10 = VERTEX_POINT ( 'NONE', #80 ) ;
#11 = DIRECTION ( 'NONE',  ( -3.491481338843133355E-15, 1.224646799147353207E-16, -1.000000000000000000 ) ) ;
#12 = VERTEX_POINT ( 'NONE', #108 ) ;
#13 = DATE_AND_TIME ( #213, #190 ) ;
#14 = COORDINATED_UNIVERSAL_TIME_OFFSET ( 1, 0, .AHEAD. ) ;
#15 = ORIENTED_EDGE ( 'NONE', *, *, #66, .T. ) ;
#16 = APPLICATION_PROTOCOL_DEFINITION ( 'international standard', 'config_control_design', 1994, #282 ) ;
#17 = AXIS2_PLACEMENT_3D ( 'NONE', #290, #181, #274 ) ;
#18 = APPROVAL ( #279, 'UNSPECIFIED' ) ;
#19 = APPROVAL_STATUS ( 'not_yet_approved' ) ;
#20 = EDGE_LOOP ( 'NONE', ( #99 ) ) ;
#21 = DIRECTION ( 'NONE',  ( -3.491481338843133355E-15, 1.224646799147353207E-16, -1.000000000000000000 ) ) ;
#22 = AXIS2_PLACEMENT_3D ( 'NONE', #34, #52, #82 ) ;
#23 = DIRECTION ( 'NONE',  ( 3.491481338843133355E-15, -1.224646799147353207E-16, 1.000000000000000000 ) ) ;
#24 = DATE_AND_TIME ( #30, #182 ) ;
#25 = CARTESIAN_POINT ( 'NONE',  ( -5.344789307371197163E-32, 1.874699728327322010E-33, -1.530808498934191509E-17 ) ) ;
#26 = AXIS2_PLACEMENT_3D ( 'NONE', #61, #299, #186 ) ;
#27 = EDGE_LOOP ( 'NONE', ( #265 ) ) ;
#28 = APPROVAL_PERSON_ORGANIZATION ( #74, #151, #70 ) ;
#29 = CC_DESIGN_PERSON_AND_ORGANIZATION_ASSIGNMENT ( #131, #278, ( #159 ) ) ;
#30 = CALENDAR_DATE ( 2021, 17, 12 ) ;
#31 = CARTESIAN_POINT ( 'NONE',  ( 1.047444401652940007E-13, -3.673940397442059178E-15, 30.00000000000000000 ) ) ;
#32 = CARTESIAN_POINT ( 'NONE',  ( 2.205791549751542826E-14, -7.736875265340984999E-16, 6.317638090205027979 ) ) ;
#33 = DIRECTION ( 'NONE',  ( 0.0000000000000000000, 1.000000000000000000, 0.0000000000000000000 ) ) ;
#34 = CARTESIAN_POINT ( 'NONE',  ( 1.042207179644675275E-13, -3.655570695454848748E-15, 29.84999999999999787 ) ) ;
#35 = DIRECTION ( 'NONE',  ( 3.840860908715381751E-31, 1.000000000000000000, 1.081106234829531119E-16 ) ) ;
#36 = CARTESIAN_POINT ( 'NONE',  ( 0.0000000000000000000, 0.0000000000000000000, 0.0000000000000000000 ) ) ;
#37 = COORDINATED_UNIVERSAL_TIME_OFFSET ( 1, 0, .AHEAD. ) ;
#38 = APPLICATION_PROTOCOL_DEFINITION ( 'international standard', 'config_control_design', 1994, #244 ) ;
#39 = ORIENTED_EDGE ( 'NONE', *, *, #289, .F. ) ;
#40 = CIRCLE ( 'NONE', #148, 0.5999999999999986455 ) ;
#41 = AXIS2_PLACEMENT_3D ( 'NONE', #269, #124, #35 ) ;
#42 = ADVANCED_FACE ( 'NONE', ( #78, #146 ), #56, .T. ) ;
#43 = VERTEX_POINT ( 'NONE', #276 ) ;
#44 = DIRECTION ( 'NONE',  ( 3.491481338843133355E-15, -1.224646799147353207E-16, 1.000000000000000000 ) ) ;
#45 = DIRECTION ( 'NONE',  ( 4.390814318394294517E-31, 1.000000000000000000, 1.224646799147353207E-16 ) ) ;
#46 = EDGE_LOOP ( 'NONE', ( #39 ) ) ;
#47 = PLANE ( 'NONE',  #50 ) ;
#48 = EDGE_CURVE ( 'NONE', #10, #10, #3, .T. ) ;
#49 = ORIENTED_EDGE ( 'NONE', *, *, #66, .F. ) ;
#50 = AXIS2_PLACEMENT_3D ( 'NONE', #243, #23, #7 ) ;
#51 = CIRCLE ( 'NONE', #67, 0.7499999999999971134 ) ;
#52 = DIRECTION ( 'NONE',  ( -3.491481338843133355E-15, 1.224646799147353207E-16, -1.000000000000000000 ) ) ;
#53 = CARTESIAN_POINT ( 'NONE',  ( 1.042207179644675275E-13, 0.7499999999999947820, 29.84999999999999787 ) ) ;
#54 = ADVANCED_FACE ( 'NONE', ( #121, #1 ), #217, .T. ) ;
#55 = CARTESIAN_POINT ( 'NONE',  ( 5.068382324650248567E-16, 0.5014318378510052021, 0.1451642392661220970 ) ) ;
#56 = CONICAL_SURFACE ( 'NONE', #169, 0.5014318378510052021, 1.047197551196592302 ) ;
#57 = LOCAL_TIME ( 11, 17, 50.00000000000000000, #14 ) ;
#58 = DIRECTION ( 'NONE',  ( 0.0000000000000000000, 1.000000000000000000, 0.0000000000000000000 ) ) ;
#59 = VERTEX_POINT ( 'NONE', #153 ) ;
#60 = PRODUCT_DEFINITION ( 'UNKNOWN', '', #235, #9 ) ;
#61 = CARTESIAN_POINT ( 'NONE',  ( 0.0000000000000000000, 0.0000000000000000000, 0.0000000000000000000 ) ) ;
#62 = CIRCLE ( 'NONE', #192, 0.6871483474218602616 ) ;
#63 = DATE_AND_TIME ( #214, #4 ) ;
#64 = EDGE_LOOP ( 'NONE', ( #96 ) ) ;
#65 = COORDINATED_UNIVERSAL_TIME_OFFSET ( 1, 0, .AHEAD. ) ;
#66 = EDGE_CURVE ( 'NONE', #275, #275, #273, .T. ) ;
#67 = AXIS2_PLACEMENT_3D ( 'NONE', #227, #11, #152 ) ;
#68 = PERSON_AND_ORGANIZATION ( #284, #196 ) ;
#69 = AXIS2_PLACEMENT_3D ( 'NONE', #86, #126, #205 ) ;
#70 = APPROVAL_ROLE ( '' ) ;
#71 = FACE_OUTER_BOUND ( 'NONE', #302, .T. ) ;
#72 = DIRECTION ( 'NONE',  ( 0.0000000000000000000, -1.000000000000000000, 0.0000000000000000000 ) ) ;
#73 = CC_DESIGN_APPROVAL ( #151, ( #107 ) ) ;
#74 = PERSON_AND_ORGANIZATION ( #284, #196 ) ;
#75 = DIRECTION ( 'NONE',  ( 3.491481338843133355E-15, -1.224646799147353207E-16, 1.000000000000000000 ) ) ;
#76 = ADVANCED_FACE ( 'NONE', ( #71 ), #98, .F. ) ;
#77 = EDGE_LOOP ( 'NONE', ( #194 ) ) ;
#78 = FACE_BOUND ( 'NONE', #77, .T. ) ;
#79 = CIRCLE ( 'NONE', #22, 0.7499999999999984457 ) ;
#80 = CARTESIAN_POINT ( 'NONE',  ( 2.618611004132350016E-15, 0.6189999999999993285, 0.7500000000000000000 ) ) ;
#81 = FACE_OUTER_BOUND ( 'NONE', #246, .T. ) ;
#82 = DIRECTION ( 'NONE',  ( 0.0000000000000000000, 1.000000000000000000, 0.0000000000000000000 ) ) ;
#83 = APPROVAL_PERSON_ORGANIZATION ( #87, #18, #111 ) ;
#84 = CLOSED_SHELL ( 'NONE', ( #101, #42, #97, #300, #218 ) ) ;
#85 = CARTESIAN_POINT ( 'NONE',  ( 1.675911042644703695E-14, 4.641756527338439936E-33, 4.799999999999999822 ) ) ;
#86 = CARTESIAN_POINT ( 'NONE',  ( 2.025059176529017031E-14, -7.102951435054647665E-16, 5.799999999999999822 ) ) ;
#87 = PERSON_AND_ORGANIZATION ( #284, #196 ) ;
#88 = ORIENTED_EDGE ( 'NONE', *, *, #229, .T. ) ;
#89 = APPROVAL ( #19, 'UNSPECIFIED' ) ;
#90 = APPROVAL_DATE_TIME ( #13, #89 ) ;
#91 =( NAMED_UNIT ( * ) SI_UNIT ( $, .STERADIAN. ) SOLID_ANGLE_UNIT ( ) );
#92 = PRODUCT_RELATED_PRODUCT_CATEGORY ( 'detail', '', ( #159 ) ) ;
#93 = ORIENTED_EDGE ( 'NONE', *, *, #289, .T. ) ;
#94 = EDGE_LOOP ( 'NONE', ( #145 ) ) ;
#95 = DIRECTION ( 'NONE',  ( -3.491481338843133355E-15, 1.224646799147353207E-16, -1.000000000000000000 ) ) ;
#96 = ORIENTED_EDGE ( 'NONE', *, *, #48, .T. ) ;
#97 = ADVANCED_FACE ( 'NONE', ( #174, #286 ), #120, .T. ) ;
#98 = PLANE ( 'NONE',  #137 ) ;
#99 = ORIENTED_EDGE ( 'NONE', *, *, #232, .T. ) ;
#100 = FACE_OUTER_BOUND ( 'NONE', #20, .T. ) ;
#101 = ADVANCED_FACE ( 'NONE', ( #177 ), #249, .F. ) ;
#102 = FACE_OUTER_BOUND ( 'NONE', #27, .T. ) ;
#103 = VERTEX_POINT ( 'NONE', #53 ) ;
#104 = DIRECTION ( 'NONE',  ( -3.491481338843133355E-15, 1.224646799147353207E-16, -1.000000000000000000 ) ) ;
#105 =( GEOMETRIC_REPRESENTATION_CONTEXT ( 3 ) GLOBAL_UNCERTAINTY_ASSIGNED_CONTEXT ( ( #272 ) ) GLOBAL_UNIT_ASSIGNED_CONTEXT ( ( #165, #261, #91 ) ) REPRESENTATION_CONTEXT ( 'NONE', 'WORKASPACE' ) );
#106 = AXIS2_PLACEMENT_3D ( 'NONE', #5, #95, #285 ) ;
#107 = SECURITY_CLASSIFICATION ( '', '', #237 ) ;
#108 = CARTESIAN_POINT ( 'NONE',  ( 2.138211768073756517E-47, 0.2500000000000000000, 0.0000000000000000000 ) ) ;
#109 = CARTESIAN_POINT ( 'NONE',  ( 2.025059176529017031E-14, 0.6189999999999993285, 5.799999999999999822 ) ) ;
#110 = ORIENTED_EDGE ( 'NONE', *, *, #175, .F. ) ;
#111 = APPROVAL_ROLE ( '' ) ;
#112 = EDGE_CURVE ( 'NONE', #252, #252, #40, .T. ) ;
#113 = EDGE_LOOP ( 'NONE', ( #164 ) ) ;
#114 = AXIS2_PLACEMENT_3D ( 'NONE', #115, #225, #72 ) ;
#115 = CARTESIAN_POINT ( 'NONE',  ( 2.287689677564872177E-14, -8.024135228517494426E-16, 6.552203650966310633 ) ) ;
#116 = CALENDAR_DATE ( 2021, 17, 12 ) ;
#117 = DIRECTION ( 'NONE',  ( -3.840860908715381751E-31, -1.000000000000000000, -1.081106234829531119E-16 ) ) ;
#118 = EDGE_LOOP ( 'NONE', ( #216 ) ) ;
#119 = CIRCLE ( 'NONE', #138, 0.6189999999999998836 ) ;
#120 = CONICAL_SURFACE ( 'NONE', #223, 0.6189999999999994396, 0.1919862177193696617 ) ;
#121 = FACE_BOUND ( 'NONE', #219, .T. ) ;
#122 = CARTESIAN_POINT ( 'NONE',  ( 2.618611004132349622E-15, -9.184850993605148438E-17, 0.7499999999999998890 ) ) ;
#123 = ADVANCED_FACE ( 'NONE', ( #6, #200 ), #264, .F. ) ;
#124 = DIRECTION ( 'NONE',  ( -3.491481338843133355E-15, 1.224646799147353207E-16, -1.000000000000000000 ) ) ;
#125 = DIRECTION ( 'NONE',  ( -3.491481338843133355E-15, 1.224646799147353207E-16, -1.000000000000000000 ) ) ;
#126 = DIRECTION ( 'NONE',  ( -3.491481338843133355E-15, 1.224646799147353207E-16, -1.000000000000000000 ) ) ;
#127 = DIRECTION ( 'NONE',  ( -3.491481338843133355E-15, 1.224646799147353207E-16, -1.000000000000000000 ) ) ;
#128 = ADVANCED_FACE ( 'NONE', ( #142 ), #47, .F. ) ;
#129 = CYLINDRICAL_SURFACE ( 'NONE', #155, 0.7499999999999978906 ) ;
#130 = AXIS2_PLACEMENT_3D ( 'NONE', #85, #158, #154 ) ;
#131 = PERSON_AND_ORGANIZATION ( #284, #196 ) ;
#132 = EDGE_LOOP ( 'NONE', ( #187 ) ) ;
#133 = DATE_TIME_ROLE ( 'creation_date' ) ;
#134 = EDGE_LOOP ( 'NONE', ( #88 ) ) ;
#135 = APPROVAL_DATE_TIME ( #63, #18 ) ;
#136 = ORIENTED_EDGE ( 'NONE', *, *, #175, .T. ) ;
#137 = AXIS2_PLACEMENT_3D ( 'NONE', #199, #172, #141 ) ;
#138 = AXIS2_PLACEMENT_3D ( 'NONE', #234, #125, #58 ) ;
#139 = PERSON_AND_ORGANIZATION ( #284, #196 ) ;
#140 = PERSON_AND_ORGANIZATION_ROLE ( 'design_supplier' ) ;
#141 = DIRECTION ( 'NONE',  ( 4.275831445896958607E-31, 1.000000000000000000, 1.224646799147353207E-16 ) ) ;
#142 = FACE_OUTER_BOUND ( 'NONE', #298, .T. ) ;
#143 = DATE_TIME_ROLE ( 'classification_date' ) ;
#144 = ADVANCED_FACE ( 'NONE', ( #228, #291 ), #257, .T. ) ;
#145 = ORIENTED_EDGE ( 'NONE', *, *, #232, .F. ) ;
#146 = FACE_OUTER_BOUND ( 'NONE', #283, .T. ) ;
#147 = CC_DESIGN_APPROVAL ( #89, ( #235 ) ) ;
#148 = AXIS2_PLACEMENT_3D ( 'NONE', #31, #226, #263 ) ;
#149 = DIRECTION ( 'NONE',  ( -6.222713875241478515E-31, -1.000000000000000000, -1.751538243110671111E-16 ) ) ;
#150 = CIRCLE ( 'NONE', #260, 0.2500000000000000000 ) ;
#151 = APPROVAL ( #173, 'UNSPECIFIED' ) ;
#152 = DIRECTION ( 'NONE',  ( 0.0000000000000000000, 1.000000000000000000, 0.0000000000000000000 ) ) ;
#153 = CARTESIAN_POINT ( 'NONE',  ( 2.205791549751542826E-14, 0.6871483474218594845, 6.317638090205027979 ) ) ;
#154 = DIRECTION ( 'NONE',  ( -4.275831445896958607E-31, -1.000000000000000000, -1.224646799147353207E-16 ) ) ;
#155 = AXIS2_PLACEMENT_3D ( 'NONE', #36, #104, #8 ) ;
#156 = VERTEX_POINT ( 'NONE', #55 ) ;
#157 = EDGE_CURVE ( 'NONE', #103, #103, #79, .T. ) ;
#158 = DIRECTION ( 'NONE',  ( 3.491481338843133355E-15, -1.224646799147353207E-16, 1.000000000000000000 ) ) ;
#159 = PRODUCT ( '305795', '305795', '', ( #236 ) ) ;
#160 = VERTEX_POINT ( 'NONE', #295 ) ;
#161 = AXIS2_PLACEMENT_3D ( 'NONE', #202, #127, #33 ) ;
#162 = CALENDAR_DATE ( 2021, 17, 12 ) ;
#163 = PERSON_AND_ORGANIZATION ( #284, #196 ) ;
#164 = ORIENTED_EDGE ( 'NONE', *, *, #157, .F. ) ;
#165 =( LENGTH_UNIT ( ) NAMED_UNIT ( * ) SI_UNIT ( .MILLI., .METRE. ) );
#166 = COORDINATED_UNIVERSAL_TIME_OFFSET ( 1, 0, .AHEAD. ) ;
#167 = ADVANCED_BREP_SHAPE_REPRESENTATION ( '305795', ( #258, #256, #26 ), #105 ) ;
#168 = DIRECTION ( 'NONE',  ( 3.491481338843133355E-15, -1.224646799147353207E-16, 1.000000000000000000 ) ) ;
#169 = AXIS2_PLACEMENT_3D ( 'NONE', #267, #44, #117 ) ;
#170 = EDGE_CURVE ( 'NONE', #59, #59, #62, .T. ) ;
#171 = CC_DESIGN_SECURITY_CLASSIFICATION ( #107, ( #235 ) ) ;
#172 = DIRECTION ( 'NONE',  ( -3.491481338843133355E-15, 1.224646799147353207E-16, -1.000000000000000000 ) ) ;
#173 = APPROVAL_STATUS ( 'not_yet_approved' ) ;
#174 = FACE_BOUND ( 'NONE', #287, .T. ) ;
#175 = EDGE_CURVE ( 'NONE', #156, #156, #233, .T. ) ;
#176 = LOCAL_TIME ( 11, 17, 50.00000000000000000, #166 ) ;
#177 = FACE_OUTER_BOUND ( 'NONE', #2, .T. ) ;
#178 = CARTESIAN_POINT ( 'NONE',  ( 1.675911042644703695E-14, 0.6189999999999993285, 4.799999999999999822 ) ) ;
#179 = CARTESIAN_POINT ( 'NONE',  ( -1.068957861474239433E-31, 3.749399456654644020E-33, -3.061616997868383018E-17 ) ) ;
#180 = ADVANCED_FACE ( 'NONE', ( #255, #231 ), #129, .T. ) ;
#181 = DIRECTION ( 'NONE',  ( -3.491481338843133355E-15, 1.224646799147353207E-16, -1.000000000000000000 ) ) ;
#182 = LOCAL_TIME ( 11, 17, 50.00000000000000000, #262 ) ;
#183 = CYLINDRICAL_SURFACE ( 'NONE', #17, 0.6189999999999999947 ) ;
#184 = CC_DESIGN_PERSON_AND_ORGANIZATION_ASSIGNMENT ( #68, #140, ( #235 ) ) ;
#185 = ORIENTED_EDGE ( 'NONE', *, *, #189, .T. ) ;
#186 = DIRECTION ( 'NONE',  ( 1.000000000000000000, 0.0000000000000000000, 0.0000000000000000000 ) ) ;
#187 = ORIENTED_EDGE ( 'NONE', *, *, #229, .F. ) ;
#188 = PERSON_AND_ORGANIZATION ( #284, #196 ) ;
#189 = EDGE_CURVE ( 'NONE', #12, #12, #150, .T. ) ;
#190 = LOCAL_TIME ( 11, 17, 50.00000000000000000, #37 ) ;
#191 = AXIS2_PLACEMENT_3D ( 'NONE', #288, #21, #45 ) ;
#192 = AXIS2_PLACEMENT_3D ( 'NONE', #32, #271, #253 ) ;
#193 = EDGE_LOOP ( 'NONE', ( #221 ) ) ;
#194 = ORIENTED_EDGE ( 'NONE', *, *, #189, .F. ) ;
#195 = DIRECTION ( 'NONE',  ( 6.222713875241478515E-31, 1.000000000000000000, 1.751538243110671111E-16 ) ) ;
#196 = ORGANIZATION ( 'UNSPECIFIED', 'UNSPECIFIED', '' ) ;
#197 = CARTESIAN_POINT ( 'NONE',  ( 2.618611004132349622E-15, -9.184850993605148438E-17, 0.7499999999999998890 ) ) ;
#198 = CC_DESIGN_DATE_AND_TIME_ASSIGNMENT ( #245, #143, ( #107 ) ) ;
#199 = CARTESIAN_POINT ( 'NONE',  ( 1.047444401652940007E-13, 4.499279347985507822E-33, 30.00000000000000000 ) ) ;
#200 = FACE_OUTER_BOUND ( 'NONE', #118, .T. ) ;
#201 = CLOSED_SHELL ( 'NONE', ( #128, #296, #123, #54, #180, #144, #76 ) ) ;
#202 = CARTESIAN_POINT ( 'NONE',  ( 1.047444401652940007E-13, -3.673940397442059178E-15, 30.00000000000000000 ) ) ;
#203 = FACE_OUTER_BOUND ( 'NONE', #46, .T. ) ;
#204 = CC_DESIGN_DATE_AND_TIME_ASSIGNMENT ( #238, #133, ( #60 ) ) ;
#205 = DIRECTION ( 'NONE',  ( 0.0000000000000000000, 1.000000000000000000, 0.0000000000000000000 ) ) ;
#206 = CARTESIAN_POINT ( 'NONE',  ( 0.0000000000000000000, 0.0000000000000000000, 0.0000000000000000000 ) ) ;
#207 = PRODUCT_DEFINITION_SHAPE ( 'NONE', 'NONE',  #60 ) ;
#208 = DIRECTION ( 'NONE',  ( 4.275831445896958607E-31, 1.000000000000000000, 1.224646799147353207E-16 ) ) ;
#209 = CC_DESIGN_PERSON_AND_ORGANIZATION_ASSIGNMENT ( #241, #303, ( #107 ) ) ;
#210 = VERTEX_POINT ( 'NONE', #109 ) ;
#211 = ORIENTED_EDGE ( 'NONE', *, *, #112, .T. ) ;
#212 = APPROVAL_PERSON_ORGANIZATION ( #139, #89, #301 ) ;
#213 = CALENDAR_DATE ( 2021, 17, 12 ) ;
#214 = CALENDAR_DATE ( 2021, 17, 12 ) ;
#215 = PERSON_AND_ORGANIZATION_ROLE ( 'creator' ) ;
#216 = ORIENTED_EDGE ( 'NONE', *, *, #170, .T. ) ;
#217 = CONICAL_SURFACE ( 'NONE', #114, 0.7499999999999971134, 0.2617993877991403040 ) ;
#218 = ADVANCED_FACE ( 'NONE', ( #250 ), #251, .T. ) ;
#219 = EDGE_LOOP ( 'NONE', ( #259 ) ) ;
#220 = DIRECTION ( 'NONE',  ( -3.491481338843133355E-15, 1.224646799147353207E-16, -1.000000000000000000 ) ) ;
#221 = ORIENTED_EDGE ( 'NONE', *, *, #157, .T. ) ;
#222 = AXIS2_PLACEMENT_3D ( 'NONE', #206, #230, #293 ) ;
#223 = AXIS2_PLACEMENT_3D ( 'NONE', #122, #75, #149 ) ;
#224 = APPROVAL_DATE_TIME ( #24, #151 ) ;
#225 = DIRECTION ( 'NONE',  ( 3.491481338843133355E-15, -1.224646799147353207E-16, 1.000000000000000000 ) ) ;
#226 = DIRECTION ( 'NONE',  ( -3.491481338843133355E-15, 1.224646799147353207E-16, -1.000000000000000000 ) ) ;
#227 = CARTESIAN_POINT ( 'NONE',  ( 2.287689677564872177E-14, -8.024135228517494426E-16, 6.552203650966310633 ) ) ;
#228 = FACE_OUTER_BOUND ( 'NONE', #113, .T. ) ;
#229 = EDGE_CURVE ( 'NONE', #160, #160, #51, .T. ) ;
#230 = DIRECTION ( 'NONE',  ( -3.491481338843133355E-15, 1.224646799147353207E-16, -1.000000000000000000 ) ) ;
#231 = FACE_OUTER_BOUND ( 'NONE', #193, .T. ) ;
#232 = EDGE_CURVE ( 'NONE', #210, #210, #297, .T. ) ;
#233 = CIRCLE ( 'NONE', #41, 0.5014318378510052021 ) ;
#234 = CARTESIAN_POINT ( 'NONE',  ( 1.675911042644703695E-14, -5.878304635907294211E-16, 4.799999999999999822 ) ) ;
#235 = PRODUCT_DEFINITION_FORMATION_WITH_SPECIFIED_SOURCE ( 'ANY', '', #159, .NOT_KNOWN. ) ;
#236 = MECHANICAL_CONTEXT ( 'NONE', #282, 'mechanical' ) ;
#237 = SECURITY_CLASSIFICATION_LEVEL ( 'unclassified' ) ;
#238 = DATE_AND_TIME ( #162, #176 ) ;
#239 = AXIS2_PLACEMENT_3D ( 'NONE', #197, #220, #195 ) ;
#240 = PERSON_AND_ORGANIZATION_ROLE ( 'creator' ) ;
#241 = PERSON_AND_ORGANIZATION ( #284, #196 ) ;
#242 = DIRECTION ( 'NONE',  ( -4.275831445896958607E-31, -1.000000000000000000, -1.224646799147353207E-16 ) ) ;
#243 = CARTESIAN_POINT ( 'NONE',  ( 1.675911042644703695E-14, 4.641756527338439936E-33, 4.799999999999999822 ) ) ;
#244 = APPLICATION_CONTEXT ( 'configuration controlled 3d designs of mechanical parts and assemblies' ) ;
#245 = DATE_AND_TIME ( #116, #57 ) ;
#246 = EDGE_LOOP ( 'NONE', ( #15 ) ) ;
#247 = ORIENTED_EDGE ( 'NONE', *, *, #112, .F. ) ;
#248 = CC_DESIGN_PERSON_AND_ORGANIZATION_ASSIGNMENT ( #163, #215, ( #60 ) ) ;
#249 = PLANE ( 'NONE',  #281 ) ;
#250 = FACE_OUTER_BOUND ( 'NONE', #268, .T. ) ;
#251 = PLANE ( 'NONE',  #130 ) ;
#252 = VERTEX_POINT ( 'NONE', #270 ) ;
#253 = DIRECTION ( 'NONE',  ( 0.0000000000000000000, 1.000000000000000000, 0.0000000000000000000 ) ) ;
#254 = CC_DESIGN_PERSON_AND_ORGANIZATION_ASSIGNMENT ( #188, #240, ( #235 ) ) ;
#255 = FACE_OUTER_BOUND ( 'NONE', #132, .T. ) ;
#256 = MANIFOLD_SOLID_BREP ( 'Corps-Déplacer/Copier1[2]', #84 ) ;
#257 = CONICAL_SURFACE ( 'NONE', #161, 0.5999999999999986455, 0.7853981633974450594 ) ;
#258 = MANIFOLD_SOLID_BREP ( 'Corps-Déplacer/Copier1[1]', #201 ) ;
#259 = ORIENTED_EDGE ( 'NONE', *, *, #170, .F. ) ;
#260 = AXIS2_PLACEMENT_3D ( 'NONE', #179, #292, #208 ) ;
#261 =( NAMED_UNIT ( * ) PLANE_ANGLE_UNIT ( ) SI_UNIT ( $, .RADIAN. ) );
#262 = COORDINATED_UNIVERSAL_TIME_OFFSET ( 1, 0, .AHEAD. ) ;
#263 = DIRECTION ( 'NONE',  ( 0.0000000000000000000, 1.000000000000000000, 0.0000000000000000000 ) ) ;
#264 = TOROIDAL_SURFACE ( 'NONE', #191, 2.619000000000000217, 2.000000000000000000 ) ;
#265 = ORIENTED_EDGE ( 'NONE', *, *, #48, .F. ) ;
#266 = SHAPE_DEFINITION_REPRESENTATION ( #207, #167 ) ;
#267 = CARTESIAN_POINT ( 'NONE',  ( 5.068382324650247580E-16, -1.777749209679168657E-17, 0.1451642392661220415 ) ) ;
#268 = EDGE_LOOP ( 'NONE', ( #49 ) ) ;
#269 = CARTESIAN_POINT ( 'NONE',  ( 5.068382324650247580E-16, -1.777749209679168657E-17, 0.1451642392661220415 ) ) ;
#270 = CARTESIAN_POINT ( 'NONE',  ( 1.047444401652940007E-13, 0.5999999999999949818, 30.00000000000000000 ) ) ;
#271 = DIRECTION ( 'NONE',  ( -3.491481338843133355E-15, 1.224646799147353207E-16, -1.000000000000000000 ) ) ;
#272 = UNCERTAINTY_MEASURE_WITH_UNIT (LENGTH_MEASURE( 1.000000000000000082E-05 ), #165, 'distance_accuracy_value', 'NONE');
#273 = CIRCLE ( 'NONE', #106, 0.6189999999999998836 ) ;
#274 = DIRECTION ( 'NONE',  ( 4.275831445896958607E-31, 1.000000000000000000, 1.224646799147353207E-16 ) ) ;
#275 = VERTEX_POINT ( 'NONE', #178 ) ;
#276 = CARTESIAN_POINT ( 'NONE',  ( 1.675911042644703695E-14, 0.6189999999999993285, 4.799999999999999822 ) ) ;
#277 = EDGE_LOOP ( 'NONE', ( #211 ) ) ;
#278 = PERSON_AND_ORGANIZATION_ROLE ( 'design_owner' ) ;
#279 = APPROVAL_STATUS ( 'not_yet_approved' ) ;
#280 = CC_DESIGN_APPROVAL ( #18, ( #60 ) ) ;
#281 = AXIS2_PLACEMENT_3D ( 'NONE', #25, #168, #242 ) ;
#282 = APPLICATION_CONTEXT ( 'configuration controlled 3d designs of mechanical parts and assemblies' ) ;
#283 = EDGE_LOOP ( 'NONE', ( #136 ) ) ;
#284 = PERSON ( 'UNSPECIFIED', 'UNSPECIFIED', 'UNSPECIFIED', ('UNSPECIFIED'), ('UNSPECIFIED'), ('UNSPECIFIED') ) ;
#285 = DIRECTION ( 'NONE',  ( 0.0000000000000000000, 1.000000000000000000, 0.0000000000000000000 ) ) ;
#286 = FACE_OUTER_BOUND ( 'NONE', #64, .T. ) ;
#287 = EDGE_LOOP ( 'NONE', ( #110 ) ) ;
#288 = CARTESIAN_POINT ( 'NONE',  ( 2.025059176529017031E-14, -8.673617379884035472E-16, 5.799999999999999822 ) ) ;
#289 = EDGE_CURVE ( 'NONE', #43, #43, #119, .T. ) ;
#290 = CARTESIAN_POINT ( 'NONE',  ( 0.0000000000000000000, 0.0000000000000000000, 0.0000000000000000000 ) ) ;
#291 = FACE_BOUND ( 'NONE', #277, .T. ) ;
#292 = DIRECTION ( 'NONE',  ( -3.491481338843133355E-15, 1.224646799147353207E-16, -1.000000000000000000 ) ) ;
#293 = DIRECTION ( 'NONE',  ( 4.275831445896959482E-31, 1.000000000000000000, 1.224646799147353207E-16 ) ) ;
#294 = CYLINDRICAL_SURFACE ( 'NONE', #222, 0.6189999999999996616 ) ;
#295 = CARTESIAN_POINT ( 'NONE',  ( 2.287689677564872177E-14, 0.7499999999999963363, 6.552203650966310633 ) ) ;
#296 = ADVANCED_FACE ( 'NONE', ( #203, #100 ), #183, .T. ) ;
#297 = CIRCLE ( 'NONE', #69, 0.6190000000000001057 ) ;
#298 = EDGE_LOOP ( 'NONE', ( #93 ) ) ;
#299 = DIRECTION ( 'NONE',  ( 0.0000000000000000000, 0.0000000000000000000, 1.000000000000000000 ) ) ;
#300 = ADVANCED_FACE ( 'NONE', ( #102, #81 ), #294, .T. ) ;
#301 = APPROVAL_ROLE ( '' ) ;
#302 = EDGE_LOOP ( 'NONE', ( #247 ) ) ;
#303 = PERSON_AND_ORGANIZATION_ROLE ( 'classification_officer' ) ;
ENDSEC;
END-ISO-10303-21;
