ISO-10303-21;
HEADER;
FILE_DESCRIPTION (( 'STEP AP203' ),
    '1' );
FILE_NAME ('305794.step',
    '2021-12-17T10:17:50',
    ( '' ),
    ( '' ),
    'SwSTEP 2.0',
    'SolidWorks 2019',
    '' );
FILE_SCHEMA (( 'CONFIG_CONTROL_DESIGN' ));
ENDSEC;

DATA;
#1 =( GEOMETRIC_REPRESENTATION_CONTEXT ( 3 ) GLOBAL_UNCERTAINTY_ASSIGNED_CONTEXT ( ( #104 ) ) GLOBAL_UNIT_ASSIGNED_CONTEXT ( ( #52, #105, #54 ) ) REPRESENTATION_CONTEXT ( 'NONE', 'WORKASPACE' ) );
#2 = DIRECTION ( 'NONE',  ( -3.491481338843133355E-15, 1.224646799147353207E-16, -1.000000000000000000 ) ) ;
#3 = CC_DESIGN_APPROVAL ( #279, ( #243 ) ) ;
#4 = COORDINATED_UNIVERSAL_TIME_OFFSET ( 1, 0, .AHEAD. ) ;
#5 = CIRCLE ( 'NONE', #19, 0.6836483474218600920 ) ;
#6 = EDGE_LOOP ( 'NONE', ( #73 ) ) ;
#7 = CC_DESIGN_DATE_AND_TIME_ASSIGNMENT ( #11, #107, ( #192 ) ) ;
#8 = CALENDAR_DATE ( 2021, 17, 12 ) ;
#9 = EDGE_LOOP ( 'NONE', ( #98 ) ) ;
#10 = VERTEX_POINT ( 'NONE', #58 ) ;
#11 = DATE_AND_TIME ( #100, #174 ) ;
#12 = EDGE_LOOP ( 'NONE', ( #292 ) ) ;
#13 = CLOSED_SHELL ( 'NONE', ( #141, #94, #285, #213, #172, #120, #115 ) ) ;
#14 = LOCAL_TIME ( 11, 17, 50.00000000000000000, #4 ) ;
#15 = PERSON_AND_ORGANIZATION_ROLE ( 'classification_officer' ) ;
#16 = DIRECTION ( 'NONE',  ( -3.491481338843133355E-15, 1.224646799147353207E-16, -1.000000000000000000 ) ) ;
#17 = DIRECTION ( 'NONE',  ( 3.491481338843133355E-15, -1.224646799147353207E-16, 1.000000000000000000 ) ) ;
#18 = DATE_AND_TIME ( #214, #142 ) ;
#19 = AXIS2_PLACEMENT_3D ( 'NONE', #166, #260, #91 ) ;
#20 = PLANE ( 'NONE',  #294 ) ;
#21 = ADVANCED_FACE ( 'NONE', ( #160, #84 ), #225, .T. ) ;
#22 = COORDINATED_UNIVERSAL_TIME_OFFSET ( 1, 0, .AHEAD. ) ;
#23 = CARTESIAN_POINT ( 'NONE',  ( 1.675911042644703695E-14, -5.878304635907294211E-16, 4.799999999999999822 ) ) ;
#24 = DIRECTION ( 'NONE',  ( 3.491481338843133355E-15, -1.224646799147353207E-16, 1.000000000000000000 ) ) ;
#25 = CC_DESIGN_DATE_AND_TIME_ASSIGNMENT ( #239, #66, ( #243 ) ) ;
#26 = CARTESIAN_POINT ( 'NONE',  ( 5.650959012597231056E-16, -1.982089604747278746E-17, 0.1618498987730410954 ) ) ;
#27 = AXIS2_PLACEMENT_3D ( 'NONE', #81, #179, #155 ) ;
#28 = EDGE_LOOP ( 'NONE', ( #276 ) ) ;
#29 = AXIS2_PLACEMENT_3D ( 'NONE', #57, #36, #133 ) ;
#30 = ADVANCED_BREP_SHAPE_REPRESENTATION ( '305794', ( #152, #43, #27 ), #1 ) ;
#31 = EDGE_LOOP ( 'NONE', ( #206 ) ) ;
#32 = CIRCLE ( 'NONE', #264, 0.7499999999999971134 ) ;
#33 = APPLICATION_PROTOCOL_DEFINITION ( 'international standard', 'config_control_design', 1994, #218 ) ;
#34 = CARTESIAN_POINT ( 'NONE',  ( 1.047444401652940007E-13, -3.673940397442059178E-15, 30.00000000000000000 ) ) ;
#35 = APPROVAL_DATE_TIME ( #56, #156 ) ;
#36 = DIRECTION ( 'NONE',  ( 3.491481338843133355E-15, -1.224646799147353207E-16, 1.000000000000000000 ) ) ;
#37 = PRODUCT_RELATED_PRODUCT_CATEGORY ( 'detail', '', ( #138 ) ) ;
#38 = AXIS2_PLACEMENT_3D ( 'NONE', #108, #16, #302 ) ;
#39 = EDGE_CURVE ( 'NONE', #131, #131, #280, .T. ) ;
#40 = DIRECTION ( 'NONE',  ( 6.258098925709950965E-31, 1.000000000000000000, 1.761498249367189781E-16 ) ) ;
#41 = CC_DESIGN_SECURITY_CLASSIFICATION ( #243, ( #203 ) ) ;
#42 = DIRECTION ( 'NONE',  ( -3.491481338843133355E-15, 1.224646799147353207E-16, -1.000000000000000000 ) ) ;
#43 = MANIFOLD_SOLID_BREP ( 'Corps-Déplacer/Copier1[2]', #149 ) ;
#44 = CARTESIAN_POINT ( 'NONE',  ( 2.222420685800593836E-14, -7.795202422953128304E-16, 6.365265828792801450 ) ) ;
#45 = CIRCLE ( 'NONE', #171, 0.6154999999999994920 ) ;
#46 = CARTESIAN_POINT ( 'NONE',  ( 1.955229549752154679E-14, -6.858022075225177566E-16, 5.599999999999999645 ) ) ;
#47 = ORIENTED_EDGE ( 'NONE', *, *, #148, .T. ) ;
#48 = LOCAL_TIME ( 11, 17, 50.00000000000000000, #269 ) ;
#49 = DIRECTION ( 'NONE',  ( 0.0000000000000000000, 1.000000000000000000, 0.0000000000000000000 ) ) ;
#50 = CALENDAR_DATE ( 2021, 17, 12 ) ;
#51 = ORIENTED_EDGE ( 'NONE', *, *, #148, .F. ) ;
#52 =( LENGTH_UNIT ( ) NAMED_UNIT ( * ) SI_UNIT ( .MILLI., .METRE. ) );
#53 = EDGE_LOOP ( 'NONE', ( #99 ) ) ;
#54 =( NAMED_UNIT ( * ) SI_UNIT ( $, .STERADIAN. ) SOLID_ANGLE_UNIT ( ) );
#55 = ORGANIZATION ( 'UNSPECIFIED', 'UNSPECIFIED', '' ) ;
#56 = DATE_AND_TIME ( #8, #14 ) ;
#57 = CARTESIAN_POINT ( 'NONE',  ( 1.675911042644703695E-14, 4.615510731141858468E-33, 4.799999999999999822 ) ) ;
#58 = CARTESIAN_POINT ( 'NONE',  ( 2.094888803305879224E-15, 0.6154999999999993809, 0.5999999999999998668 ) ) ;
#59 = EDGE_LOOP ( 'NONE', ( #137 ) ) ;
#60 = PERSON_AND_ORGANIZATION ( #289, #55 ) ;
#61 = DIRECTION ( 'NONE',  ( 4.275831445896958607E-31, 1.000000000000000000, 1.224646799147353454E-16 ) ) ;
#62 = CC_DESIGN_APPROVAL ( #261, ( #203 ) ) ;
#63 = PERSON_AND_ORGANIZATION ( #289, #55 ) ;
#64 = CARTESIAN_POINT ( 'NONE',  ( 3.505940083131314752E-32, -1.229718243956529448E-33, 1.004141148952258764E-17 ) ) ;
#65 = CARTESIAN_POINT ( 'NONE',  ( 1.047444401652940007E-13, 4.499279347985507822E-33, 30.00000000000000000 ) ) ;
#66 = DATE_TIME_ROLE ( 'classification_date' ) ;
#67 = AXIS2_PLACEMENT_3D ( 'NONE', #65, #106, #238 ) ;
#68 = CARTESIAN_POINT ( 'NONE',  ( 2.094888803305878830E-15, -7.347880794884116531E-17, 0.5999999999999997558 ) ) ;
#69 = DIRECTION ( 'NONE',  ( 3.631553525370318241E-31, 1.000000000000000000, 1.022191443977111020E-16 ) ) ;
#70 = AXIS2_PLACEMENT_3D ( 'NONE', #46, #182, #49 ) ;
#71 = DIRECTION ( 'NONE',  ( -3.491481338843133355E-15, 1.224646799147353207E-16, -1.000000000000000000 ) ) ;
#72 = EDGE_LOOP ( 'NONE', ( #154 ) ) ;
#73 = ORIENTED_EDGE ( 'NONE', *, *, #200, .F. ) ;
#74 = PERSON_AND_ORGANIZATION ( #289, #55 ) ;
#75 = ADVANCED_FACE ( 'NONE', ( #85, #185 ), #207, .T. ) ;
#76 = CARTESIAN_POINT ( 'NONE',  ( 1.675911042644703695E-14, 0.6154999999999993809, 4.799999999999999822 ) ) ;
#77 = MECHANICAL_CONTEXT ( 'NONE', #218, 'mechanical' ) ;
#78 = EDGE_LOOP ( 'NONE', ( #298 ) ) ;
#79 = CARTESIAN_POINT ( 'NONE',  ( 2.222420685800593836E-14, 0.7499999999999963363, 6.365265828792801450 ) ) ;
#80 = ORIENTED_EDGE ( 'NONE', *, *, #246, .F. ) ;
#81 = CARTESIAN_POINT ( 'NONE',  ( 0.0000000000000000000, 0.0000000000000000000, 0.0000000000000000000 ) ) ;
#82 = DIRECTION ( 'NONE',  ( 0.0000000000000000000, 1.000000000000000000, 0.0000000000000000000 ) ) ;
#83 = AXIS2_PLACEMENT_3D ( 'NONE', #159, #278, #61 ) ;
#84 = FACE_OUTER_BOUND ( 'NONE', #295, .T. ) ;
#85 = FACE_OUTER_BOUND ( 'NONE', #250, .T. ) ;
#86 = CARTESIAN_POINT ( 'NONE',  ( 0.0000000000000000000, 0.0000000000000000000, 0.0000000000000000000 ) ) ;
#87 = ADVANCED_FACE ( 'NONE', ( #162 ), #210, .F. ) ;
#88 = AXIS2_PLACEMENT_3D ( 'NONE', #68, #169, #262 ) ;
#89 = FACE_OUTER_BOUND ( 'NONE', #28, .T. ) ;
#90 = EDGE_CURVE ( 'NONE', #230, #230, #188, .T. ) ;
#91 = DIRECTION ( 'NONE',  ( 0.0000000000000000000, 1.000000000000000000, 0.0000000000000000000 ) ) ;
#92 = CARTESIAN_POINT ( 'NONE',  ( 1.675911042644703695E-14, 4.615510731141858468E-33, 4.799999999999999822 ) ) ;
#93 = DIRECTION ( 'NONE',  ( -3.491481338843133355E-15, 1.224646799147353207E-16, -1.000000000000000000 ) ) ;
#94 = ADVANCED_FACE ( 'NONE', ( #187, #190 ), #303, .T. ) ;
#95 = DIRECTION ( 'NONE',  ( 0.0000000000000000000, -1.000000000000000000, 0.0000000000000000000 ) ) ;
#96 = CC_DESIGN_APPROVAL ( #156, ( #192 ) ) ;
#97 = FACE_OUTER_BOUND ( 'NONE', #265, .T. ) ;
#98 = ORIENTED_EDGE ( 'NONE', *, *, #153, .F. ) ;
#99 = ORIENTED_EDGE ( 'NONE', *, *, #90, .F. ) ;
#100 = CALENDAR_DATE ( 2021, 17, 12 ) ;
#101 = EDGE_LOOP ( 'NONE', ( #51 ) ) ;
#102 = LOCAL_TIME ( 11, 17, 50.00000000000000000, #22 ) ;
#103 = DIRECTION ( 'NONE',  ( 4.390901511559441843E-31, 1.000000000000000000, 1.224646799147353207E-16 ) ) ;
#104 = UNCERTAINTY_MEASURE_WITH_UNIT (LENGTH_MEASURE( 1.000000000000000082E-05 ), #52, 'distance_accuracy_value', 'NONE');
#105 =( NAMED_UNIT ( * ) PLANE_ANGLE_UNIT ( ) SI_UNIT ( $, .RADIAN. ) );
#106 = DIRECTION ( 'NONE',  ( -3.491481338843133355E-15, 1.224646799147353207E-16, -1.000000000000000000 ) ) ;
#107 = DATE_TIME_ROLE ( 'creation_date' ) ;
#108 = CARTESIAN_POINT ( 'NONE',  ( 1.675911042644703695E-14, -5.878304635907294211E-16, 4.799999999999999822 ) ) ;
#109 = PERSON_AND_ORGANIZATION_ROLE ( 'design_supplier' ) ;
#110 = SHAPE_DEFINITION_REPRESENTATION ( #191, #30 ) ;
#111 = EDGE_CURVE ( 'NONE', #10, #10, #45, .T. ) ;
#112 = DIRECTION ( 'NONE',  ( -3.491481338843133355E-15, 1.224646799147353207E-16, -1.000000000000000000 ) ) ;
#113 = CALENDAR_DATE ( 2021, 17, 12 ) ;
#114 = DIRECTION ( 'NONE',  ( -4.275831445896958607E-31, -1.000000000000000000, -1.224646799147353207E-16 ) ) ;
#115 = ADVANCED_FACE ( 'NONE', ( #139 ), #184, .F. ) ;
#116 = COORDINATED_UNIVERSAL_TIME_OFFSET ( 1, 0, .AHEAD. ) ;
#117 = CIRCLE ( 'NONE', #163, 0.5999999999999986455 ) ;
#118 = CARTESIAN_POINT ( 'NONE',  ( 1.047444401652940007E-13, -3.673940397442059178E-15, 30.00000000000000000 ) ) ;
#119 = DIRECTION ( 'NONE',  ( 0.0000000000000000000, 1.000000000000000000, 0.0000000000000000000 ) ) ;
#120 = ADVANCED_FACE ( 'NONE', ( #299, #165 ), #127, .T. ) ;
#121 = AXIS2_PLACEMENT_3D ( 'NONE', #34, #229, #82 ) ;
#122 = ORIENTED_EDGE ( 'NONE', *, *, #257, .F. ) ;
#123 = VERTEX_POINT ( 'NONE', #221 ) ;
#124 = APPLICATION_PROTOCOL_DEFINITION ( 'international standard', 'config_control_design', 1994, #236 ) ;
#125 = CARTESIAN_POINT ( 'NONE',  ( 1.042207179644675275E-13, 0.7499999999999947820, 29.84999999999999787 ) ) ;
#126 = EDGE_LOOP ( 'NONE', ( #255 ) ) ;
#127 = CONICAL_SURFACE ( 'NONE', #121, 0.5999999999999986455, 0.7853981633974450594 ) ;
#128 = PERSON_AND_ORGANIZATION_ROLE ( 'design_owner' ) ;
#129 = ORIENTED_EDGE ( 'NONE', *, *, #246, .T. ) ;
#130 = CC_DESIGN_PERSON_AND_ORGANIZATION_ASSIGNMENT ( #132, #176, ( #192 ) ) ;
#131 = VERTEX_POINT ( 'NONE', #271 ) ;
#132 = PERSON_AND_ORGANIZATION ( #289, #55 ) ;
#133 = DIRECTION ( 'NONE',  ( -4.275831445896958607E-31, -1.000000000000000000, -1.224646799147353207E-16 ) ) ;
#134 = APPROVAL_STATUS ( 'not_yet_approved' ) ;
#135 = DIRECTION ( 'NONE',  ( 3.491481338843133355E-15, -1.224646799147353207E-16, 1.000000000000000000 ) ) ;
#136 = AXIS2_PLACEMENT_3D ( 'NONE', #86, #282, #253 ) ;
#137 = ORIENTED_EDGE ( 'NONE', *, *, #39, .F. ) ;
#138 = PRODUCT ( '305794', '305794', '', ( #77 ) ) ;
#139 = FACE_OUTER_BOUND ( 'NONE', #293, .T. ) ;
#140 = CARTESIAN_POINT ( 'NONE',  ( 0.0000000000000000000, 0.0000000000000000000, 0.0000000000000000000 ) ) ;
#141 = ADVANCED_FACE ( 'NONE', ( #181 ), #274, .F. ) ;
#142 = LOCAL_TIME ( 11, 17, 50.00000000000000000, #116 ) ;
#143 = APPROVAL_DATE_TIME ( #18, #279 ) ;
#144 = CYLINDRICAL_SURFACE ( 'NONE', #281, 0.7499999999999978906 ) ;
#145 = DIRECTION ( 'NONE',  ( 0.0000000000000000000, 1.000000000000000000, 0.0000000000000000000 ) ) ;
#146 = DIRECTION ( 'NONE',  ( 4.275831445896958607E-31, 1.000000000000000000, 1.224646799147353207E-16 ) ) ;
#147 = AXIS2_PLACEMENT_3D ( 'NONE', #64, #112, #212 ) ;
#148 = EDGE_CURVE ( 'NONE', #123, #123, #5, .T. ) ;
#149 = CLOSED_SHELL ( 'NONE', ( #87, #21, #245, #75, #189 ) ) ;
#150 = CARTESIAN_POINT ( 'NONE',  ( 1.419551869787371291E-31, 0.2500000000000000000, 4.065758146820641628E-17 ) ) ;
#151 = ORIENTED_EDGE ( 'NONE', *, *, #297, .T. ) ;
#152 = MANIFOLD_SOLID_BREP ( 'Corps-Déplacer/Copier1[1]', #13 ) ;
#153 = EDGE_CURVE ( 'NONE', #296, #296, #291, .T. ) ;
#154 = ORIENTED_EDGE ( 'NONE', *, *, #257, .T. ) ;
#155 = DIRECTION ( 'NONE',  ( 1.000000000000000000, 0.0000000000000000000, 0.0000000000000000000 ) ) ;
#156 = APPROVAL ( #228, 'UNSPECIFIED' ) ;
#157 = AXIS2_PLACEMENT_3D ( 'NONE', #237, #17, #284 ) ;
#158 = VERTEX_POINT ( 'NONE', #227 ) ;
#159 = CARTESIAN_POINT ( 'NONE',  ( 0.0000000000000000000, 0.0000000000000000000, 0.0000000000000000000 ) ) ;
#160 = FACE_BOUND ( 'NONE', #53, .T. ) ;
#161 = SECURITY_CLASSIFICATION_LEVEL ( 'unclassified' ) ;
#162 = FACE_OUTER_BOUND ( 'NONE', #78, .T. ) ;
#163 = AXIS2_PLACEMENT_3D ( 'NONE', #118, #2, #170 ) ;
#164 = PERSON_AND_ORGANIZATION ( #289, #55 ) ;
#165 = FACE_BOUND ( 'NONE', #72, .T. ) ;
#166 = CARTESIAN_POINT ( 'NONE',  ( 2.135961922974680159E-14, -7.491945905511513914E-16, 6.117638090205027801 ) ) ;
#167 = CIRCLE ( 'NONE', #248, 0.7499999999999984457 ) ;
#168 = DIRECTION ( 'NONE',  ( 3.491481338843133355E-15, -1.224646799147353207E-16, 1.000000000000000000 ) ) ;
#169 = DIRECTION ( 'NONE',  ( 3.491481338843133355E-15, -1.224646799147353207E-16, 1.000000000000000000 ) ) ;
#170 = DIRECTION ( 'NONE',  ( 0.0000000000000000000, 1.000000000000000000, 0.0000000000000000000 ) ) ;
#171 = AXIS2_PLACEMENT_3D ( 'NONE', #258, #301, #40 ) ;
#172 = ADVANCED_FACE ( 'NONE', ( #89, #220 ), #144, .T. ) ;
#173 = ORIENTED_EDGE ( 'NONE', *, *, #297, .F. ) ;
#174 = LOCAL_TIME ( 11, 17, 50.00000000000000000, #231 ) ;
#175 = APPROVAL_ROLE ( '' ) ;
#176 = PERSON_AND_ORGANIZATION_ROLE ( 'creator' ) ;
#177 = ORIENTED_EDGE ( 'NONE', *, *, #153, .T. ) ;
#178 = CARTESIAN_POINT ( 'NONE',  ( 1.955229549752154679E-14, -8.673617379884035472E-16, 5.599999999999999645 ) ) ;
#179 = DIRECTION ( 'NONE',  ( 0.0000000000000000000, 0.0000000000000000000, 1.000000000000000000 ) ) ;
#180 = AXIS2_PLACEMENT_3D ( 'NONE', #178, #202, #103 ) ;
#181 = FACE_OUTER_BOUND ( 'NONE', #31, .T. ) ;
#182 = DIRECTION ( 'NONE',  ( -3.491481338843133355E-15, 1.224646799147353207E-16, -1.000000000000000000 ) ) ;
#183 = VERTEX_POINT ( 'NONE', #125 ) ;
#184 = PLANE ( 'NONE',  #67 ) ;
#185 = FACE_OUTER_BOUND ( 'NONE', #270, .T. ) ;
#186 = PERSON_AND_ORGANIZATION_ROLE ( 'creator' ) ;
#187 = FACE_OUTER_BOUND ( 'NONE', #59, .T. ) ;
#188 = CIRCLE ( 'NONE', #147, 0.2500000000000000000 ) ;
#189 = ADVANCED_FACE ( 'NONE', ( #286 ), #20, .T. ) ;
#190 = FACE_OUTER_BOUND ( 'NONE', #224, .T. ) ;
#191 = PRODUCT_DEFINITION_SHAPE ( 'NONE', 'NONE',  #192 ) ;
#192 = PRODUCT_DEFINITION ( 'UNKNOWN', '', #203, #252 ) ;
#193 = DIRECTION ( 'NONE',  ( -3.491481338843133355E-15, 1.224646799147353207E-16, -1.000000000000000000 ) ) ;
#194 = APPROVAL_PERSON_ORGANIZATION ( #74, #261, #199 ) ;
#195 = FACE_BOUND ( 'NONE', #198, .T. ) ;
#196 = CC_DESIGN_PERSON_AND_ORGANIZATION_ASSIGNMENT ( #63, #109, ( #203 ) ) ;
#197 = CIRCLE ( 'NONE', #234, 0.5303322478747836133 ) ;
#198 = EDGE_LOOP ( 'NONE', ( #80 ) ) ;
#199 = APPROVAL_ROLE ( '' ) ;
#200 = EDGE_CURVE ( 'NONE', #183, #183, #167, .T. ) ;
#201 = ORIENTED_EDGE ( 'NONE', *, *, #111, .F. ) ;
#202 = DIRECTION ( 'NONE',  ( -3.491481338843133355E-15, 1.224646799147353207E-16, -1.000000000000000000 ) ) ;
#203 = PRODUCT_DEFINITION_FORMATION_WITH_SPECIFIED_SOURCE ( 'ANY', '', #138, .NOT_KNOWN. ) ;
#204 = VERTEX_POINT ( 'NONE', #300 ) ;
#205 = CC_DESIGN_PERSON_AND_ORGANIZATION_ASSIGNMENT ( #254, #128, ( #138 ) ) ;
#206 = ORIENTED_EDGE ( 'NONE', *, *, #39, .T. ) ;
#207 = CYLINDRICAL_SURFACE ( 'NONE', #83, 0.6154999999999997140 ) ;
#208 = APPROVAL_STATUS ( 'not_yet_approved' ) ;
#209 = AXIS2_PLACEMENT_3D ( 'NONE', #241, #24, #95 ) ;
#210 = PLANE ( 'NONE',  #157 ) ;
#211 = CARTESIAN_POINT ( 'NONE',  ( 5.650959012597231056E-16, -1.982089604747278746E-17, 0.1618498987730410954 ) ) ;
#212 = DIRECTION ( 'NONE',  ( 4.275831445896958607E-31, 1.000000000000000000, 1.224646799147353207E-16 ) ) ;
#213 = ADVANCED_FACE ( 'NONE', ( #219, #217 ), #263, .T. ) ;
#214 = CALENDAR_DATE ( 2021, 17, 12 ) ;
#215 = CONICAL_SURFACE ( 'NONE', #88, 0.6154999999999994920, 0.1919862177193696617 ) ;
#216 = CC_DESIGN_PERSON_AND_ORGANIZATION_ASSIGNMENT ( #259, #186, ( #203 ) ) ;
#217 = FACE_OUTER_BOUND ( 'NONE', #12, .T. ) ;
#218 = APPLICATION_CONTEXT ( 'configuration controlled 3d designs of mechanical parts and assemblies' ) ;
#219 = FACE_BOUND ( 'NONE', #101, .T. ) ;
#220 = FACE_OUTER_BOUND ( 'NONE', #235, .T. ) ;
#221 = CARTESIAN_POINT ( 'NONE',  ( 2.135961922974680159E-14, 0.6836483474218593148, 6.117638090205027801 ) ) ;
#222 = PERSON_AND_ORGANIZATION ( #289, #55 ) ;
#223 = VERTEX_POINT ( 'NONE', #251 ) ;
#224 = EDGE_LOOP ( 'NONE', ( #151 ) ) ;
#225 = CONICAL_SURFACE ( 'NONE', #268, 0.5303322478747836133, 1.047197551196592746 ) ;
#226 = AXIS2_PLACEMENT_3D ( 'NONE', #23, #71, #119 ) ;
#227 = CARTESIAN_POINT ( 'NONE',  ( 1.047444401652940007E-13, 0.5999999999999949818, 30.00000000000000000 ) ) ;
#228 = APPROVAL_STATUS ( 'not_yet_approved' ) ;
#229 = DIRECTION ( 'NONE',  ( -3.491481338843133355E-15, 1.224646799147353207E-16, -1.000000000000000000 ) ) ;
#230 = VERTEX_POINT ( 'NONE', #150 ) ;
#231 = COORDINATED_UNIVERSAL_TIME_OFFSET ( 1, 0, .AHEAD. ) ;
#232 = DIRECTION ( 'NONE',  ( -3.631553525370318241E-31, -1.000000000000000000, -1.022191443977111020E-16 ) ) ;
#233 = APPROVAL_ROLE ( '' ) ;
#234 = AXIS2_PLACEMENT_3D ( 'NONE', #26, #93, #69 ) ;
#235 = EDGE_LOOP ( 'NONE', ( #266 ) ) ;
#236 = APPLICATION_CONTEXT ( 'configuration controlled 3d designs of mechanical parts and assemblies' ) ;
#237 = CARTESIAN_POINT ( 'NONE',  ( 1.752970041565657376E-32, -6.148591219782647238E-34, 5.020705744761293818E-18 ) ) ;
#238 = DIRECTION ( 'NONE',  ( 4.275831445896958607E-31, 1.000000000000000000, 1.224646799147353207E-16 ) ) ;
#239 = DATE_AND_TIME ( #113, #102 ) ;
#240 = APPROVAL_PERSON_ORGANIZATION ( #222, #156, #175 ) ;
#241 = CARTESIAN_POINT ( 'NONE',  ( 2.222420685800593836E-14, -7.795202422953128304E-16, 6.365265828792801450 ) ) ;
#242 = CARTESIAN_POINT ( 'NONE',  ( 1.042207179644675275E-13, -3.655570695454848748E-15, 29.84999999999999787 ) ) ;
#243 = SECURITY_CLASSIFICATION ( '', '', #161 ) ;
#244 = DIRECTION ( 'NONE',  ( -3.491481338843133355E-15, 1.224646799147353207E-16, -1.000000000000000000 ) ) ;
#245 = ADVANCED_FACE ( 'NONE', ( #195, #288 ), #215, .T. ) ;
#246 = EDGE_CURVE ( 'NONE', #204, #204, #197, .T. ) ;
#247 = EDGE_LOOP ( 'NONE', ( #47 ) ) ;
#248 = AXIS2_PLACEMENT_3D ( 'NONE', #242, #42, #145 ) ;
#249 = VERTEX_POINT ( 'NONE', #79 ) ;
#250 = EDGE_LOOP ( 'NONE', ( #201 ) ) ;
#251 = CARTESIAN_POINT ( 'NONE',  ( 1.955229549752154679E-14, 0.6154999999999993809, 5.599999999999999645 ) ) ;
#252 = DESIGN_CONTEXT ( 'detailed design', #236, 'design' ) ;
#253 = DIRECTION ( 'NONE',  ( 4.275831445896958607E-31, 1.000000000000000000, 1.224646799147353207E-16 ) ) ;
#254 = PERSON_AND_ORGANIZATION ( #289, #55 ) ;
#255 = ORIENTED_EDGE ( 'NONE', *, *, #111, .T. ) ;
#256 = CIRCLE ( 'NONE', #70, 0.6155000000000000471 ) ;
#257 = EDGE_CURVE ( 'NONE', #158, #158, #117, .T. ) ;
#258 = CARTESIAN_POINT ( 'NONE',  ( 2.094888803305878830E-15, -7.347880794884116531E-17, 0.5999999999999997558 ) ) ;
#259 = PERSON_AND_ORGANIZATION ( #289, #55 ) ;
#260 = DIRECTION ( 'NONE',  ( -3.491481338843133355E-15, 1.224646799147353207E-16, -1.000000000000000000 ) ) ;
#261 = APPROVAL ( #208, 'UNSPECIFIED' ) ;
#262 = DIRECTION ( 'NONE',  ( -6.258098925709950965E-31, -1.000000000000000000, -1.761498249367189781E-16 ) ) ;
#263 = CONICAL_SURFACE ( 'NONE', #209, 0.7499999999999971134, 0.2617993877991423579 ) ;
#264 = AXIS2_PLACEMENT_3D ( 'NONE', #44, #244, #290 ) ;
#265 = EDGE_LOOP ( 'NONE', ( #173 ) ) ;
#266 = ORIENTED_EDGE ( 'NONE', *, *, #200, .T. ) ;
#267 = CC_DESIGN_PERSON_AND_ORGANIZATION_ASSIGNMENT ( #60, #15, ( #243 ) ) ;
#268 = AXIS2_PLACEMENT_3D ( 'NONE', #211, #135, #232 ) ;
#269 = COORDINATED_UNIVERSAL_TIME_OFFSET ( 1, 0, .AHEAD. ) ;
#270 = EDGE_LOOP ( 'NONE', ( #177 ) ) ;
#271 = CARTESIAN_POINT ( 'NONE',  ( 1.675911042644703695E-14, 0.6154999999999993809, 4.799999999999999822 ) ) ;
#272 = DATE_AND_TIME ( #50, #48 ) ;
#273 = APPROVAL_PERSON_ORGANIZATION ( #164, #279, #233 ) ;
#274 = PLANE ( 'NONE',  #29 ) ;
#275 = FACE_OUTER_BOUND ( 'NONE', #247, .T. ) ;
#276 = ORIENTED_EDGE ( 'NONE', *, *, #283, .F. ) ;
#277 = APPROVAL_DATE_TIME ( #272, #261 ) ;
#278 = DIRECTION ( 'NONE',  ( -3.491481338843133355E-15, 1.224646799147353207E-16, -1.000000000000000000 ) ) ;
#279 = APPROVAL ( #134, 'UNSPECIFIED' ) ;
#280 = CIRCLE ( 'NONE', #38, 0.6154999999999999361 ) ;
#281 = AXIS2_PLACEMENT_3D ( 'NONE', #140, #193, #146 ) ;
#282 = DIRECTION ( 'NONE',  ( -3.491481338843133355E-15, 1.224646799147353207E-16, -1.000000000000000000 ) ) ;
#283 = EDGE_CURVE ( 'NONE', #249, #249, #32, .T. ) ;
#284 = DIRECTION ( 'NONE',  ( -4.275831445896958607E-31, -1.000000000000000000, -1.224646799147353207E-16 ) ) ;
#285 = ADVANCED_FACE ( 'NONE', ( #97, #275 ), #287, .F. ) ;
#286 = FACE_OUTER_BOUND ( 'NONE', #9, .T. ) ;
#287 = TOROIDAL_SURFACE ( 'NONE', #180, 2.615500000000000380, 2.000000000000000000 ) ;
#288 = FACE_OUTER_BOUND ( 'NONE', #126, .T. ) ;
#289 = PERSON ( 'UNSPECIFIED', 'UNSPECIFIED', 'UNSPECIFIED', ('UNSPECIFIED'), ('UNSPECIFIED'), ('UNSPECIFIED') ) ;
#290 = DIRECTION ( 'NONE',  ( 0.0000000000000000000, 1.000000000000000000, 0.0000000000000000000 ) ) ;
#291 = CIRCLE ( 'NONE', #226, 0.6154999999999999361 ) ;
#292 = ORIENTED_EDGE ( 'NONE', *, *, #283, .T. ) ;
#293 = EDGE_LOOP ( 'NONE', ( #122 ) ) ;
#294 = AXIS2_PLACEMENT_3D ( 'NONE', #92, #168, #114 ) ;
#295 = EDGE_LOOP ( 'NONE', ( #129 ) ) ;
#296 = VERTEX_POINT ( 'NONE', #76 ) ;
#297 = EDGE_CURVE ( 'NONE', #223, #223, #256, .T. ) ;
#298 = ORIENTED_EDGE ( 'NONE', *, *, #90, .T. ) ;
#299 = FACE_OUTER_BOUND ( 'NONE', #6, .T. ) ;
#300 = CARTESIAN_POINT ( 'NONE',  ( 5.650959012597233028E-16, 0.5303322478747836133, 0.1618498987730411509 ) ) ;
#301 = DIRECTION ( 'NONE',  ( -3.491481338843133355E-15, 1.224646799147353207E-16, -1.000000000000000000 ) ) ;
#302 = DIRECTION ( 'NONE',  ( 0.0000000000000000000, 1.000000000000000000, 0.0000000000000000000 ) ) ;
#303 = CYLINDRICAL_SURFACE ( 'NONE', #136, 0.6154999999999999361 ) ;
ENDSEC;
END-ISO-10303-21;
