ISO-10303-21;
HEADER;
FILE_DESCRIPTION (( 'STEP AP203' ),
    '1' );
FILE_NAME ('305793.step',
    '2021-12-17T10:17:49',
    ( '' ),
    ( '' ),
    'SwSTEP 2.0',
    'SolidWorks 2019',
    '' );
FILE_SCHEMA (( 'CONFIG_CONTROL_DESIGN' ));
ENDSEC;

DATA;
#1 = CLOSED_SHELL ( 'NONE', ( #135, #81, #141, #167, #101 ) ) ;
#2 = CYLINDRICAL_SURFACE ( 'NONE', #24, 0.7499999999999978906 ) ;
#3 = DIRECTION ( 'NONE',  ( 0.0000000000000000000, 1.000000000000000000, 0.0000000000000000000 ) ) ;
#4 = DIRECTION ( 'NONE',  ( -7.421695354093395921E-31, -1.000000000000000000, -2.089021526947022452E-16 ) ) ;
#5 = AXIS2_PLACEMENT_3D ( 'NONE', #138, #47, #20 ) ;
#6 = CARTESIAN_POINT ( 'NONE',  ( 4.731839565957903938E-32, 0.2099999999999999922, 1.355252715606880543E-17 ) ) ;
#7 = SECURITY_CLASSIFICATION ( '', '', #249 ) ;
#8 = DIRECTION ( 'NONE',  ( 4.393358750182240602E-31, 1.000000000000000000, 1.224646799147353207E-16 ) ) ;
#9 = FACE_BOUND ( 'NONE', #17, .T. ) ;
#10 = VERTEX_POINT ( 'NONE', #218 ) ;
#11 = VERTEX_POINT ( 'NONE', #192 ) ;
#12 = COORDINATED_UNIVERSAL_TIME_OFFSET ( 1, 0, .AHEAD. ) ;
#13 = EDGE_CURVE ( 'NONE', #248, #248, #79, .T. ) ;
#14 = APPROVAL_DATE_TIME ( #220, #179 ) ;
#15 = DIRECTION ( 'NONE',  ( 1.000000000000000000, 0.0000000000000000000, 0.0000000000000000000 ) ) ;
#16 = CALENDAR_DATE ( 2021, 17, 12 ) ;
#17 = EDGE_LOOP ( 'NONE', ( #106 ) ) ;
#18 = ORIENTED_EDGE ( 'NONE', *, *, #245, .T. ) ;
#19 = CARTESIAN_POINT ( 'NONE',  ( 0.0000000000000000000, 0.0000000000000000000, 0.0000000000000000000 ) ) ;
#20 = DIRECTION ( 'NONE',  ( -4.275831445896958607E-31, -1.000000000000000000, -1.224646799147353207E-16 ) ) ;
#21 = FACE_BOUND ( 'NONE', #126, .T. ) ;
#22 = DIRECTION ( 'NONE',  ( -3.491481338843133355E-15, 1.224646799147353207E-16, -1.000000000000000000 ) ) ;
#23 = DIRECTION ( 'NONE',  ( -3.491481338843133355E-15, 1.224646799147353207E-16, -1.000000000000000000 ) ) ;
#24 = AXIS2_PLACEMENT_3D ( 'NONE', #89, #208, #190 ) ;
#25 = CARTESIAN_POINT ( 'NONE',  ( 1.042207179644675275E-13, 0.7499999999999947820, 29.84999999999999787 ) ) ;
#26 = AXIS2_PLACEMENT_3D ( 'NONE', #225, #294, #15 ) ;
#27 = CC_DESIGN_PERSON_AND_ORGANIZATION_ASSIGNMENT ( #227, #102, ( #145 ) ) ;
#28 = CARTESIAN_POINT ( 'NONE',  ( 1.745740669421566678E-14, -4.336808689942017736E-16, 5.000000000000000000 ) ) ;
#29 = DIRECTION ( 'NONE',  ( 4.275831445896958607E-31, 1.000000000000000000, 1.224646799147353207E-16 ) ) ;
#30 = CARTESIAN_POINT ( 'NONE',  ( 1.745740669421566678E-14, 0.5189999999999997948, 5.000000000000000000 ) ) ;
#31 = PERSON_AND_ORGANIZATION_ROLE ( 'creator' ) ;
#32 = PERSON_AND_ORGANIZATION_ROLE ( 'classification_officer' ) ;
#33 = ORIENTED_EDGE ( 'NONE', *, *, #159, .T. ) ;
#34 = ORIENTED_EDGE ( 'NONE', *, *, #293, .T. ) ;
#35 = AXIS2_PLACEMENT_3D ( 'NONE', #172, #244, #262 ) ;
#36 = ORGANIZATION ( 'UNSPECIFIED', 'UNSPECIFIED', '' ) ;
#37 = EDGE_LOOP ( 'NONE', ( #230 ) ) ;
#38 = AXIS2_PLACEMENT_3D ( 'NONE', #19, #93, #110 ) ;
#39 = CC_DESIGN_SECURITY_CLASSIFICATION ( #7, ( #145 ) ) ;
#40 = ADVANCED_FACE ( 'NONE', ( #188, #87 ), #2, .T. ) ;
#41 = DIRECTION ( 'NONE',  ( 3.491481338843133355E-15, -1.224646799147353207E-16, 1.000000000000000000 ) ) ;
#42 = DATE_TIME_ROLE ( 'classification_date' ) ;
#43 = ORIENTED_EDGE ( 'NONE', *, *, #293, .F. ) ;
#44 = CARTESIAN_POINT ( 'NONE',  ( 2.138675027959835840E-14, -7.501462196774073252E-16, 6.125408731723205769 ) ) ;
#45 = PERSON_AND_ORGANIZATION ( #182, #36 ) ;
#46 = APPROVAL_PERSON_ORGANIZATION ( #45, #189, #136 ) ;
#47 = DIRECTION ( 'NONE',  ( 3.491481338843133355E-15, -1.224646799147353207E-16, 1.000000000000000000 ) ) ;
#48 = CARTESIAN_POINT ( 'NONE',  ( 0.0000000000000000000, 0.0000000000000000000, 0.0000000000000000000 ) ) ;
#49 = VERTEX_POINT ( 'NONE', #99 ) ;
#50 = DIRECTION ( 'NONE',  ( -3.491481338843133355E-15, 1.224646799147353207E-16, -1.000000000000000000 ) ) ;
#51 = CARTESIAN_POINT ( 'NONE',  ( 1.745740669421566678E-14, -6.123233995736766282E-16, 5.000000000000000000 ) ) ;
#52 = CARTESIAN_POINT ( 'NONE',  ( 2.618611004132350016E-15, 0.5189999999999997948, 0.7500000000000000000 ) ) ;
#53 = DIRECTION ( 'NONE',  ( -3.491481338843133355E-15, 1.224646799147353207E-16, -1.000000000000000000 ) ) ;
#54 = TOROIDAL_SURFACE ( 'NONE', #195, 2.519000000000000572, 2.000000000000000000 ) ;
#55 = PERSON_AND_ORGANIZATION ( #182, #36 ) ;
#56 = ORIENTED_EDGE ( 'NONE', *, *, #193, .T. ) ;
#57 = EDGE_LOOP ( 'NONE', ( #43 ) ) ;
#58 = DATE_TIME_ROLE ( 'creation_date' ) ;
#59 = CIRCLE ( 'NONE', #94, 0.5871483474218606169 ) ;
#60 = COORDINATED_UNIVERSAL_TIME_OFFSET ( 1, 0, .AHEAD. ) ;
#61 = EDGE_LOOP ( 'NONE', ( #109 ) ) ;
#62 = EDGE_CURVE ( 'NONE', #146, #146, #209, .T. ) ;
#63 = FACE_OUTER_BOUND ( 'NONE', #168, .T. ) ;
#64 = AXIS2_PLACEMENT_3D ( 'NONE', #240, #22, #137 ) ;
#65 = LOCAL_TIME ( 11, 17, 49.00000000000000000, #200 ) ;
#66 = FACE_OUTER_BOUND ( 'NONE', #154, .T. ) ;
#67 = EDGE_LOOP ( 'NONE', ( #221 ) ) ;
#68 = DATE_AND_TIME ( #133, #65 ) ;
#69 = DIRECTION ( 'NONE',  ( 0.0000000000000000000, -1.000000000000000000, 0.0000000000000000000 ) ) ;
#70 = EDGE_LOOP ( 'NONE', ( #18 ) ) ;
#71 = FACE_OUTER_BOUND ( 'NONE', #297, .T. ) ;
#72 = CARTESIAN_POINT ( 'NONE',  ( 1.396592535537253342E-14, 3.891876636007515237E-33, 4.000000000000000000 ) ) ;
#73 = CIRCLE ( 'NONE', #158, 0.7499999999999984457 ) ;
#74 = DIRECTION ( 'NONE',  ( 3.491481338843133355E-15, -1.224646799147353207E-16, 1.000000000000000000 ) ) ;
#75 = LOCAL_TIME ( 11, 17, 49.00000000000000000, #60 ) ;
#76 = CARTESIAN_POINT ( 'NONE',  ( 1.926473042644091842E-14, -6.757157826023101645E-16, 5.517638090205027268 ) ) ;
#77 = PRODUCT_DEFINITION_SHAPE ( 'NONE', 'NONE',  #108 ) ;
#78 = FACE_OUTER_BOUND ( 'NONE', #57, .T. ) ;
#79 = CIRCLE ( 'NONE', #250, 0.5189999999999999059 ) ;
#80 = ORIENTED_EDGE ( 'NONE', *, *, #245, .F. ) ;
#81 = ADVANCED_FACE ( 'NONE', ( #281, #302 ), #132, .T. ) ;
#82 = DATE_AND_TIME ( #121, #289 ) ;
#83 = AXIS2_PLACEMENT_3D ( 'NONE', #114, #23, #253 ) ;
#84 = ORIENTED_EDGE ( 'NONE', *, *, #193, .F. ) ;
#85 = ADVANCED_FACE ( 'NONE', ( #21, #186 ), #288, .T. ) ;
#86 = APPROVAL_STATUS ( 'not_yet_approved' ) ;
#87 = FACE_OUTER_BOUND ( 'NONE', #273, .T. ) ;
#88 = SHAPE_DEFINITION_REPRESENTATION ( #77, #118 ) ;
#89 = CARTESIAN_POINT ( 'NONE',  ( 0.0000000000000000000, 0.0000000000000000000, 0.0000000000000000000 ) ) ;
#90 = CIRCLE ( 'NONE', #35, 0.5190000000000003499 ) ;
#91 = CALENDAR_DATE ( 2021, 17, 12 ) ;
#92 = DIRECTION ( 'NONE',  ( -3.491481338843133355E-15, 1.224646799147353207E-16, -1.000000000000000000 ) ) ;
#93 = DIRECTION ( 'NONE',  ( -3.491481338843133355E-15, 1.224646799147353207E-16, -1.000000000000000000 ) ) ;
#94 = AXIS2_PLACEMENT_3D ( 'NONE', #76, #100, #287 ) ;
#95 = CARTESIAN_POINT ( 'NONE',  ( 1.396592535537253342E-14, 0.5189999999999997948, 4.000000000000000000 ) ) ;
#96 = ADVANCED_FACE ( 'NONE', ( #63, #284 ), #254, .T. ) ;
#97 = FACE_OUTER_BOUND ( 'NONE', #204, .T. ) ;
#98 = AXIS2_PLACEMENT_3D ( 'NONE', #303, #234, #187 ) ;
#99 = CARTESIAN_POINT ( 'NONE',  ( 3.706004100288624209E-16, 0.3938471059073531677, 0.1061441760853452376 ) ) ;
#100 = DIRECTION ( 'NONE',  ( -3.491481338843133355E-15, 1.224646799147353207E-16, -1.000000000000000000 ) ) ;
#101 = ADVANCED_FACE ( 'NONE', ( #241 ), #112, .T. ) ;
#102 = PERSON_AND_ORGANIZATION_ROLE ( 'creator' ) ;
#103 = CIRCLE ( 'NONE', #64, 0.3938471059073531677 ) ;
#104 = ORIENTED_EDGE ( 'NONE', *, *, #13, .F. ) ;
#105 = DATE_AND_TIME ( #160, #75 ) ;
#106 = ORIENTED_EDGE ( 'NONE', *, *, #62, .T. ) ;
#107 = PERSON_AND_ORGANIZATION ( #182, #36 ) ;
#108 = PRODUCT_DEFINITION ( 'UNKNOWN', '', #145, #149 ) ;
#109 = ORIENTED_EDGE ( 'NONE', *, *, #128, .F. ) ;
#110 = DIRECTION ( 'NONE',  ( 4.275831445896959482E-31, 1.000000000000000000, 1.224646799147353207E-16 ) ) ;
#111 = FACE_OUTER_BOUND ( 'NONE', #276, .T. ) ;
#112 = PLANE ( 'NONE',  #171 ) ;
#113 = APPROVAL_DATE_TIME ( #185, #189 ) ;
#114 = CARTESIAN_POINT ( 'NONE',  ( -4.247406470425708873E-32, 1.489789643386176385E-33, -1.216505562602560891E-17 ) ) ;
#115 = FACE_OUTER_BOUND ( 'NONE', #67, .T. ) ;
#116 = CONICAL_SURFACE ( 'NONE', #278, 0.5999999999999986455, 0.7853981633974450594 ) ;
#117 = CARTESIAN_POINT ( 'NONE',  ( 1.047444401652940007E-13, 4.499279347985507822E-33, 30.00000000000000000 ) ) ;
#118 = ADVANCED_BREP_SHAPE_REPRESENTATION ( '305793', ( #239, #226, #26 ), #279 ) ;
#119 = CIRCLE ( 'NONE', #150, 0.5190000000000003499 ) ;
#120 = FACE_OUTER_BOUND ( 'NONE', #277, .T. ) ;
#121 = CALENDAR_DATE ( 2021, 17, 12 ) ;
#122 = APPROVAL_STATUS ( 'not_yet_approved' ) ;
#123 = ORIENTED_EDGE ( 'NONE', *, *, #128, .T. ) ;
#124 = CC_DESIGN_PERSON_AND_ORGANIZATION_ASSIGNMENT ( #176, #268, ( #145 ) ) ;
#125 = LOCAL_TIME ( 11, 17, 49.00000000000000000, #12 ) ;
#126 = EDGE_LOOP ( 'NONE', ( #181 ) ) ;
#127 = APPROVAL_STATUS ( 'not_yet_approved' ) ;
#128 = EDGE_CURVE ( 'NONE', #10, #10, #231, .T. ) ;
#129 = APPROVAL_ROLE ( '' ) ;
#130 = ORIENTED_EDGE ( 'NONE', *, *, #243, .T. ) ;
#131 = ORIENTED_EDGE ( 'NONE', *, *, #152, .F. ) ;
#132 = CONICAL_SURFACE ( 'NONE', #214, 0.3938471059073531677, 1.047197551196592746 ) ;
#133 = CALENDAR_DATE ( 2021, 17, 12 ) ;
#134 = CYLINDRICAL_SURFACE ( 'NONE', #38, 0.5190000000000001279 ) ;
#135 = ADVANCED_FACE ( 'NONE', ( #164 ), #256, .F. ) ;
#136 = APPROVAL_ROLE ( '' ) ;
#137 = DIRECTION ( 'NONE',  ( 3.667533508879489472E-31, 1.000000000000000000, 1.376425211996539788E-16 ) ) ;
#138 = CARTESIAN_POINT ( 'NONE',  ( -2.123703235212854436E-32, 7.448948216930881924E-34, -6.082527813012804453E-18 ) ) ;
#139 = CARTESIAN_POINT ( 'NONE',  ( 2.618611004132349622E-15, -9.184850993605148438E-17, 0.7499999999999998890 ) ) ;
#140 = APPLICATION_CONTEXT ( 'configuration controlled 3d designs of mechanical parts and assemblies' ) ;
#141 = ADVANCED_FACE ( 'NONE', ( #205, #111 ), #252, .T. ) ;
#142 = DIRECTION ( 'NONE',  ( -3.491481338843133355E-15, 1.224646799147353207E-16, -1.000000000000000000 ) ) ;
#143 = VERTEX_POINT ( 'NONE', #25 ) ;
#144 = CIRCLE ( 'NONE', #223, 0.5190000000000004610 ) ;
#145 = PRODUCT_DEFINITION_FORMATION_WITH_SPECIFIED_SOURCE ( 'ANY', '', #157, .NOT_KNOWN. ) ;
#146 = VERTEX_POINT ( 'NONE', #216 ) ;
#147 = PLANE ( 'NONE',  #261 ) ;
#148 = VERTEX_POINT ( 'NONE', #246 ) ;
#149 = DESIGN_CONTEXT ( 'detailed design', #228, 'design' ) ;
#150 = AXIS2_PLACEMENT_3D ( 'NONE', #259, #197, #260 ) ;
#151 = DIRECTION ( 'NONE',  ( 0.0000000000000000000, 1.000000000000000000, 0.0000000000000000000 ) ) ;
#152 = EDGE_CURVE ( 'NONE', #49, #49, #103, .T. ) ;
#153 = APPROVAL_ROLE ( '' ) ;
#154 = EDGE_LOOP ( 'NONE', ( #104 ) ) ;
#155 = APPLICATION_PROTOCOL_DEFINITION ( 'international standard', 'config_control_design', 1994, #228 ) ;
#156 = EDGE_LOOP ( 'NONE', ( #33 ) ) ;
#157 = PRODUCT ( '305793', '305793', '', ( #275 ) ) ;
#158 = AXIS2_PLACEMENT_3D ( 'NONE', #173, #170, #264 ) ;
#159 = EDGE_CURVE ( 'NONE', #196, #196, #163, .T. ) ;
#160 = CALENDAR_DATE ( 2021, 17, 12 ) ;
#161 = EDGE_LOOP ( 'NONE', ( #80 ) ) ;
#162 = DIRECTION ( 'NONE',  ( 3.491481338843133355E-15, -1.224646799147353207E-16, 1.000000000000000000 ) ) ;
#163 = CIRCLE ( 'NONE', #83, 0.2099999999999999922 ) ;
#164 = FACE_OUTER_BOUND ( 'NONE', #156, .T. ) ;
#165 = CARTESIAN_POINT ( 'NONE',  ( 2.138675027959835840E-14, -7.501462196774073252E-16, 6.125408731723205769 ) ) ;
#166 = CARTESIAN_POINT ( 'NONE',  ( 2.618611004132349622E-15, -9.184850993605148438E-17, 0.7499999999999998890 ) ) ;
#167 = ADVANCED_FACE ( 'NONE', ( #66, #235 ), #134, .T. ) ;
#168 = EDGE_LOOP ( 'NONE', ( #84 ) ) ;
#169 = VERTEX_POINT ( 'NONE', #30 ) ;
#170 = DIRECTION ( 'NONE',  ( -3.491481338843133355E-15, 1.224646799147353207E-16, -1.000000000000000000 ) ) ;
#171 = AXIS2_PLACEMENT_3D ( 'NONE', #183, #41, #212 ) ;
#172 = CARTESIAN_POINT ( 'NONE',  ( 1.396592535537253342E-14, -4.898587196589412829E-16, 4.000000000000000000 ) ) ;
#173 = CARTESIAN_POINT ( 'NONE',  ( 1.042207179644675275E-13, -3.655570695454848748E-15, 29.84999999999999787 ) ) ;
#174 = CC_DESIGN_DATE_AND_TIME_ASSIGNMENT ( #68, #42, ( #7 ) ) ;
#175 = AXIS2_PLACEMENT_3D ( 'NONE', #165, #255, #69 ) ;
#176 = PERSON_AND_ORGANIZATION ( #182, #36 ) ;
#177 = ORIENTED_EDGE ( 'NONE', *, *, #13, .T. ) ;
#178 = COORDINATED_UNIVERSAL_TIME_OFFSET ( 1, 0, .AHEAD. ) ;
#179 = APPROVAL ( #127, 'UNSPECIFIED' ) ;
#180 = EDGE_LOOP ( 'NONE', ( #131 ) ) ;
#181 = ORIENTED_EDGE ( 'NONE', *, *, #206, .F. ) ;
#182 = PERSON ( 'UNSPECIFIED', 'UNSPECIFIED', 'UNSPECIFIED', ('UNSPECIFIED'), ('UNSPECIFIED'), ('UNSPECIFIED') ) ;
#183 = CARTESIAN_POINT ( 'NONE',  ( 1.396592535537253342E-14, 3.891876636007515237E-33, 4.000000000000000000 ) ) ;
#184 = CC_DESIGN_PERSON_AND_ORGANIZATION_ASSIGNMENT ( #229, #31, ( #108 ) ) ;
#185 = DATE_AND_TIME ( #91, #199 ) ;
#186 = FACE_OUTER_BOUND ( 'NONE', #270, .T. ) ;
#187 = DIRECTION ( 'NONE',  ( 0.0000000000000000000, 1.000000000000000000, 0.0000000000000000000 ) ) ;
#188 = FACE_OUTER_BOUND ( 'NONE', #61, .T. ) ;
#189 = APPROVAL ( #86, 'UNSPECIFIED' ) ;
#190 = DIRECTION ( 'NONE',  ( 4.275831445896958607E-31, 1.000000000000000000, 1.224646799147353207E-16 ) ) ;
#191 = AXIS2_PLACEMENT_3D ( 'NONE', #48, #142, #282 ) ;
#192 = CARTESIAN_POINT ( 'NONE',  ( 1.396592535537253342E-14, 0.5189999999999997948, 4.000000000000000000 ) ) ;
#193 = EDGE_CURVE ( 'NONE', #290, #290, #119, .T. ) ;
#194 = PLANE ( 'NONE',  #267 ) ;
#195 = AXIS2_PLACEMENT_3D ( 'NONE', #28, #215, #8 ) ;
#196 = VERTEX_POINT ( 'NONE', #6 ) ;
#197 = DIRECTION ( 'NONE',  ( -3.491481338843133355E-15, 1.224646799147353207E-16, -1.000000000000000000 ) ) ;
#198 = CC_DESIGN_PERSON_AND_ORGANIZATION_ASSIGNMENT ( #203, #291, ( #157 ) ) ;
#199 = LOCAL_TIME ( 11, 17, 49.00000000000000000, #211 ) ;
#200 = COORDINATED_UNIVERSAL_TIME_OFFSET ( 1, 0, .AHEAD. ) ;
#201 = EDGE_LOOP ( 'NONE', ( #130 ) ) ;
#202 = ADVANCED_FACE ( 'NONE', ( #97, #115 ), #54, .F. ) ;
#203 = PERSON_AND_ORGANIZATION ( #182, #36 ) ;
#204 = EDGE_LOOP ( 'NONE', ( #300 ) ) ;
#205 = FACE_BOUND ( 'NONE', #180, .T. ) ;
#206 = EDGE_CURVE ( 'NONE', #148, #148, #59, .T. ) ;
#207 = DIRECTION ( 'NONE',  ( 7.421695354093395921E-31, 1.000000000000000000, 2.089021526947022452E-16 ) ) ;
#208 = DIRECTION ( 'NONE',  ( -3.491481338843133355E-15, 1.224646799147353207E-16, -1.000000000000000000 ) ) ;
#209 = CIRCLE ( 'NONE', #98, 0.5999999999999986455 ) ;
#210 = APPROVAL_PERSON_ORGANIZATION ( #271, #179, #153 ) ;
#211 = COORDINATED_UNIVERSAL_TIME_OFFSET ( 1, 0, .AHEAD. ) ;
#212 = DIRECTION ( 'NONE',  ( -4.275831445896958607E-31, -1.000000000000000000, -1.224646799147353207E-16 ) ) ;
#213 = CARTESIAN_POINT ( 'NONE',  ( 3.706004100288623223E-16, -1.299891254910510173E-17, 0.1061441760853451960 ) ) ;
#214 = AXIS2_PLACEMENT_3D ( 'NONE', #213, #162, #258 ) ;
#215 = DIRECTION ( 'NONE',  ( -3.491481338843133355E-15, 1.224646799147353207E-16, -1.000000000000000000 ) ) ;
#216 = CARTESIAN_POINT ( 'NONE',  ( 1.047444401652940007E-13, 0.5999999999999949818, 30.00000000000000000 ) ) ;
#217 = ADVANCED_FACE ( 'NONE', ( #78, #9 ), #116, .T. ) ;
#218 = CARTESIAN_POINT ( 'NONE',  ( 2.138675027959835840E-14, 0.7499999999999963363, 6.125408731723205769 ) ) ;
#219 =( NAMED_UNIT ( * ) SI_UNIT ( $, .STERADIAN. ) SOLID_ANGLE_UNIT ( ) );
#220 = DATE_AND_TIME ( #16, #125 ) ;
#221 = ORIENTED_EDGE ( 'NONE', *, *, #206, .T. ) ;
#222 = CC_DESIGN_PERSON_AND_ORGANIZATION_ASSIGNMENT ( #107, #32, ( #7 ) ) ;
#223 = AXIS2_PLACEMENT_3D ( 'NONE', #51, #53, #151 ) ;
#224 = CC_DESIGN_APPROVAL ( #299, ( #108 ) ) ;
#225 = CARTESIAN_POINT ( 'NONE',  ( 0.0000000000000000000, 0.0000000000000000000, 0.0000000000000000000 ) ) ;
#226 = MANIFOLD_SOLID_BREP ( 'Corps-Déplacer/Copier1[2]', #1 ) ;
#227 = PERSON_AND_ORGANIZATION ( #182, #36 ) ;
#228 = APPLICATION_CONTEXT ( 'configuration controlled 3d designs of mechanical parts and assemblies' ) ;
#229 = PERSON_AND_ORGANIZATION ( #182, #36 ) ;
#230 = ORIENTED_EDGE ( 'NONE', *, *, #152, .T. ) ;
#231 = CIRCLE ( 'NONE', #283, 0.7499999999999971134 ) ;
#232 = ADVANCED_FACE ( 'NONE', ( #71 ), #194, .F. ) ;
#233 = ORIENTED_EDGE ( 'NONE', *, *, #62, .F. ) ;
#234 = DIRECTION ( 'NONE',  ( -3.491481338843133355E-15, 1.224646799147353207E-16, -1.000000000000000000 ) ) ;
#235 = FACE_OUTER_BOUND ( 'NONE', #70, .T. ) ;
#236 = PRODUCT_RELATED_PRODUCT_CATEGORY ( 'detail', '', ( #157 ) ) ;
#237 = DIRECTION ( 'NONE',  ( -3.491481338843133355E-15, 1.224646799147353207E-16, -1.000000000000000000 ) ) ;
#238 = CLOSED_SHELL ( 'NONE', ( #232, #96, #202, #85, #40, #217, #274 ) ) ;
#239 = MANIFOLD_SOLID_BREP ( 'Corps-Déplacer/Copier1[1]', #238 ) ;
#240 = CARTESIAN_POINT ( 'NONE',  ( 3.706004100288623223E-16, -1.299891254910510173E-17, 0.1061441760853451960 ) ) ;
#241 = FACE_OUTER_BOUND ( 'NONE', #161, .T. ) ;
#242 = CARTESIAN_POINT ( 'NONE',  ( 1.047444401652940007E-13, -3.673940397442059178E-15, 30.00000000000000000 ) ) ;
#243 = EDGE_CURVE ( 'NONE', #169, #169, #144, .T. ) ;
#244 = DIRECTION ( 'NONE',  ( -3.491481338843133355E-15, 1.224646799147353207E-16, -1.000000000000000000 ) ) ;
#245 = EDGE_CURVE ( 'NONE', #11, #11, #90, .T. ) ;
#246 = CARTESIAN_POINT ( 'NONE',  ( 1.926473042644091842E-14, 0.5871483474218599508, 5.517638090205027268 ) ) ;
#247 = CC_DESIGN_APPROVAL ( #189, ( #7 ) ) ;
#248 = VERTEX_POINT ( 'NONE', #52 ) ;
#249 = SECURITY_CLASSIFICATION_LEVEL ( 'unclassified' ) ;
#250 = AXIS2_PLACEMENT_3D ( 'NONE', #166, #237, #207 ) ;
#251 = APPLICATION_PROTOCOL_DEFINITION ( 'international standard', 'config_control_design', 1994, #140 ) ;
#252 = CONICAL_SURFACE ( 'NONE', #272, 0.5189999999999999059, 0.1919862177193698838 ) ;
#253 = DIRECTION ( 'NONE',  ( 4.275831445896958607E-31, 1.000000000000000000, 1.224646799147353207E-16 ) ) ;
#254 = CYLINDRICAL_SURFACE ( 'NONE', #191, 0.5190000000000003499 ) ;
#255 = DIRECTION ( 'NONE',  ( 3.491481338843133355E-15, -1.224646799147353207E-16, 1.000000000000000000 ) ) ;
#256 = PLANE ( 'NONE',  #5 ) ;
#257 = APPROVAL_PERSON_ORGANIZATION ( #55, #299, #129 ) ;
#258 = DIRECTION ( 'NONE',  ( -3.667533508879489472E-31, -1.000000000000000000, -1.376425211996539788E-16 ) ) ;
#259 = CARTESIAN_POINT ( 'NONE',  ( 1.396592535537253342E-14, -4.898587196589412829E-16, 4.000000000000000000 ) ) ;
#260 = DIRECTION ( 'NONE',  ( 0.0000000000000000000, 1.000000000000000000, 0.0000000000000000000 ) ) ;
#261 = AXIS2_PLACEMENT_3D ( 'NONE', #117, #50, #29 ) ;
#262 = DIRECTION ( 'NONE',  ( 0.0000000000000000000, 1.000000000000000000, 0.0000000000000000000 ) ) ;
#263 = CC_DESIGN_DATE_AND_TIME_ASSIGNMENT ( #82, #58, ( #108 ) ) ;
#264 = DIRECTION ( 'NONE',  ( 0.0000000000000000000, 1.000000000000000000, 0.0000000000000000000 ) ) ;
#265 = UNCERTAINTY_MEASURE_WITH_UNIT (LENGTH_MEASURE( 1.000000000000000082E-05 ), #269, 'distance_accuracy_value', 'NONE');
#266 = DIRECTION ( 'NONE',  ( -4.275831445896958607E-31, -1.000000000000000000, -1.224646799147353207E-16 ) ) ;
#267 = AXIS2_PLACEMENT_3D ( 'NONE', #72, #74, #266 ) ;
#268 = PERSON_AND_ORGANIZATION_ROLE ( 'design_supplier' ) ;
#269 =( LENGTH_UNIT ( ) NAMED_UNIT ( * ) SI_UNIT ( .MILLI., .METRE. ) );
#270 = EDGE_LOOP ( 'NONE', ( #123 ) ) ;
#271 = PERSON_AND_ORGANIZATION ( #182, #36 ) ;
#272 = AXIS2_PLACEMENT_3D ( 'NONE', #139, #280, #4 ) ;
#273 = EDGE_LOOP ( 'NONE', ( #34 ) ) ;
#274 = ADVANCED_FACE ( 'NONE', ( #120 ), #147, .F. ) ;
#275 = MECHANICAL_CONTEXT ( 'NONE', #140, 'mechanical' ) ;
#276 = EDGE_LOOP ( 'NONE', ( #177 ) ) ;
#277 = EDGE_LOOP ( 'NONE', ( #233 ) ) ;
#278 = AXIS2_PLACEMENT_3D ( 'NONE', #242, #286, #285 ) ;
#279 =( GEOMETRIC_REPRESENTATION_CONTEXT ( 3 ) GLOBAL_UNCERTAINTY_ASSIGNED_CONTEXT ( ( #265 ) ) GLOBAL_UNIT_ASSIGNED_CONTEXT ( ( #269, #298, #219 ) ) REPRESENTATION_CONTEXT ( 'NONE', 'WORKASPACE' ) );
#280 = DIRECTION ( 'NONE',  ( 3.491481338843133355E-15, -1.224646799147353207E-16, 1.000000000000000000 ) ) ;
#281 = FACE_BOUND ( 'NONE', #292, .T. ) ;
#282 = DIRECTION ( 'NONE',  ( 4.275831445896958607E-31, 1.000000000000000000, 1.224646799147353207E-16 ) ) ;
#283 = AXIS2_PLACEMENT_3D ( 'NONE', #44, #92, #3 ) ;
#284 = FACE_OUTER_BOUND ( 'NONE', #201, .T. ) ;
#285 = DIRECTION ( 'NONE',  ( 0.0000000000000000000, 1.000000000000000000, 0.0000000000000000000 ) ) ;
#286 = DIRECTION ( 'NONE',  ( -3.491481338843133355E-15, 1.224646799147353207E-16, -1.000000000000000000 ) ) ;
#287 = DIRECTION ( 'NONE',  ( 0.0000000000000000000, 1.000000000000000000, 0.0000000000000000000 ) ) ;
#288 = CONICAL_SURFACE ( 'NONE', #175, 0.7499999999999971134, 0.2617993877991420248 ) ;
#289 = LOCAL_TIME ( 11, 17, 49.00000000000000000, #178 ) ;
#290 = VERTEX_POINT ( 'NONE', #95 ) ;
#291 = PERSON_AND_ORGANIZATION_ROLE ( 'design_owner' ) ;
#292 = EDGE_LOOP ( 'NONE', ( #295 ) ) ;
#293 = EDGE_CURVE ( 'NONE', #143, #143, #73, .T. ) ;
#294 = DIRECTION ( 'NONE',  ( 0.0000000000000000000, 0.0000000000000000000, 1.000000000000000000 ) ) ;
#295 = ORIENTED_EDGE ( 'NONE', *, *, #159, .F. ) ;
#296 = APPROVAL_DATE_TIME ( #105, #299 ) ;
#297 = EDGE_LOOP ( 'NONE', ( #56 ) ) ;
#298 =( NAMED_UNIT ( * ) PLANE_ANGLE_UNIT ( ) SI_UNIT ( $, .RADIAN. ) );
#299 = APPROVAL ( #122, 'UNSPECIFIED' ) ;
#300 = ORIENTED_EDGE ( 'NONE', *, *, #243, .F. ) ;
#301 = CC_DESIGN_APPROVAL ( #179, ( #145 ) ) ;
#302 = FACE_OUTER_BOUND ( 'NONE', #37, .T. ) ;
#303 = CARTESIAN_POINT ( 'NONE',  ( 1.047444401652940007E-13, -3.673940397442059178E-15, 30.00000000000000000 ) ) ;
ENDSEC;
END-ISO-10303-21;
