ISO-10303-21;
HEADER;
FILE_DESCRIPTION (( 'STEP AP203' ),
    '1' );
FILE_NAME ('305280.step',
    '2021-11-17T12:43:02',
    ( '' ),
    ( '' ),
    'SwSTEP 2.0',
    'SolidWorks 2019',
    '' );
FILE_SCHEMA (( 'CONFIG_CONTROL_DESIGN' ));
ENDSEC;

DATA;
#1 = PRODUCT_DEFINITION_FORMATION_WITH_SPECIFIED_SOURCE ( 'ANY', '', #49, .NOT_KNOWN. ) ;
#2 = PERSON_AND_ORGANIZATION_ROLE ( 'classification_officer' ) ;
#3 = ORIENTED_EDGE ( 'NONE', *, *, #141, .F. ) ;
#4 = CARTESIAN_POINT ( 'NONE',  ( -2.738343354729370935E-30, 9.706529821703571144E-32, -7.842927081594234994E-16 ) ) ;
#5 = CARTESIAN_POINT ( 'NONE',  ( 3.342211840695213170E-14, -8.876767993027889983E-16, 9.572475165519918505 ) ) ;
#6 = LOCAL_TIME ( 13, 43, 2.000000000000000000, #20 ) ;
#7 = FACE_OUTER_BOUND ( 'NONE', #122, .T. ) ;
#8 = APPROVAL ( #110, 'UNSPECIFIED' ) ;
#9 = VERTEX_POINT ( 'NONE', #221 ) ;
#10 = DIRECTION ( 'NONE',  ( 0.0000000000000000000, 0.0000000000000000000, 1.000000000000000000 ) ) ;
#11 = CARTESIAN_POINT ( 'NONE',  ( 1.396592535537253342E-13, 2.399999999999995914, 40.00000000000000000 ) ) ;
#12 = EDGE_LOOP ( 'NONE', ( #72 ) ) ;
#13 = ORIENTED_EDGE ( 'NONE', *, *, #29, .T. ) ;
#14 = CC_DESIGN_PERSON_AND_ORGANIZATION_ASSIGNMENT ( #148, #2, ( #156 ) ) ;
#15 = ORIENTED_EDGE ( 'NONE', *, *, #204, .F. ) ;
#16 = PERSON_AND_ORGANIZATION ( #68, #231 ) ;
#17 = COORDINATED_UNIVERSAL_TIME_OFFSET ( 1, 0, .AHEAD. ) ;
#18 = AXIS2_PLACEMENT_3D ( 'NONE', #84, #165, #230 ) ;
#19 = DIRECTION ( 'NONE',  ( 3.491481338843133355E-15, -1.224646799147353207E-16, 1.000000000000000000 ) ) ;
#20 = COORDINATED_UNIVERSAL_TIME_OFFSET ( 1, 0, .AHEAD. ) ;
#21 = PRODUCT_RELATED_PRODUCT_CATEGORY ( 'detail', '', ( #49 ) ) ;
#22 = DIRECTION ( 'NONE',  ( 0.0000000000000000000, 1.000000000000000000, 0.0000000000000000000 ) ) ;
#23 = DIRECTION ( 'NONE',  ( -3.491481338843133355E-15, 1.224646799147353207E-16, -1.000000000000000000 ) ) ;
#24 = FACE_OUTER_BOUND ( 'NONE', #145, .T. ) ;
#25 = AXIS2_PLACEMENT_3D ( 'NONE', #64, #132, #211 ) ;
#26 = AXIS2_PLACEMENT_3D ( 'NONE', #130, #94, #226 ) ;
#27 = DIRECTION ( 'NONE',  ( 0.0000000000000000000, -1.000000000000000000, 0.0000000000000000000 ) ) ;
#28 = AXIS2_PLACEMENT_3D ( 'NONE', #86, #233, #155 ) ;
#29 = EDGE_CURVE ( 'NONE', #9, #9, #173, .T. ) ;
#30 = FACE_OUTER_BOUND ( 'NONE', #185, .T. ) ;
#31 = CARTESIAN_POINT ( 'NONE',  ( 2.793185071074503529E-15, -0.4000000000000001332, 0.7999999999999990452 ) ) ;
#32 = VERTEX_POINT ( 'NONE', #139 ) ;
#33 = CARTESIAN_POINT ( 'NONE',  ( -2.911187841920566355E-30, -0.4000000000000001887, -8.337973368304350251E-16 ) ) ;
#34 = CC_DESIGN_PERSON_AND_ORGANIZATION_ASSIGNMENT ( #227, #37, ( #1 ) ) ;
#35 = EDGE_LOOP ( 'NONE', ( #13 ) ) ;
#36 = AXIS2_PLACEMENT_3D ( 'NONE', #113, #45, #192 ) ;
#37 = PERSON_AND_ORGANIZATION_ROLE ( 'creator' ) ;
#38 = APPROVAL_STATUS ( 'not_yet_approved' ) ;
#39 = FACE_OUTER_BOUND ( 'NONE', #223, .T. ) ;
#40 = PERSON_AND_ORGANIZATION_ROLE ( 'creator' ) ;
#41 = AXIS2_PLACEMENT_3D ( 'NONE', #170, #83, #225 ) ;
#42 = PLANE ( 'NONE',  #36 ) ;
#43 = PERSON_AND_ORGANIZATION_ROLE ( 'design_supplier' ) ;
#44 = FACE_OUTER_BOUND ( 'NONE', #35, .T. ) ;
#45 = DIRECTION ( 'NONE',  ( 3.491481338843133355E-15, -1.224646799147353207E-16, 1.000000000000000000 ) ) ;
#46 = APPLICATION_CONTEXT ( 'configuration controlled 3d designs of mechanical parts and assemblies' ) ;
#47 = CARTESIAN_POINT ( 'NONE',  ( 0.0000000000000000000, 0.0000000000000000000, 0.0000000000000000000 ) ) ;
#48 = CLOSED_SHELL ( 'NONE', ( #199, #217, #234 ) ) ;
#49 = PRODUCT ( '305280', '305280', '', ( #74 ) ) ;
#50 = ORIENTED_EDGE ( 'NONE', *, *, #140, .F. ) ;
#51 = AXIS2_PLACEMENT_3D ( 'NONE', #4, #65, #212 ) ;
#52 = VERTEX_POINT ( 'NONE', #11 ) ;
#53 = ORIENTED_EDGE ( 'NONE', *, *, #187, .T. ) ;
#54 = ADVANCED_FACE ( 'NONE', ( #59 ), #210, .F. ) ;
#55 = VERTEX_POINT ( 'NONE', #33 ) ;
#56 = AXIS2_PLACEMENT_3D ( 'NONE', #81, #23, #171 ) ;
#57 = LOCAL_TIME ( 13, 43, 2.000000000000000000, #186 ) ;
#58 = APPLICATION_PROTOCOL_DEFINITION ( 'international standard', 'config_control_design', 1994, #46 ) ;
#59 = FACE_OUTER_BOUND ( 'NONE', #238, .T. ) ;
#60 = APPROVAL_STATUS ( 'not_yet_approved' ) ;
#61 = DIRECTION ( 'NONE',  ( -3.491481338843133355E-15, 1.224646799147353207E-16, -1.000000000000000000 ) ) ;
#62 = APPROVAL ( #60, 'UNSPECIFIED' ) ;
#63 = MANIFOLD_SOLID_BREP ( 'Corps-Déplacer/Copier1[1]', #180 ) ;
#64 = CARTESIAN_POINT ( 'NONE',  ( 2.793185071074503529E-15, -9.900925734202296522E-17, 0.7999999999999990452 ) ) ;
#65 = DIRECTION ( 'NONE',  ( 3.491481338843133355E-15, -1.237615716775288637E-16, 1.000000000000000000 ) ) ;
#66 = CARTESIAN_POINT ( 'NONE',  ( 1.375643647504194668E-13, -4.825108388640572095E-15, 39.40000000000000568 ) ) ;
#67 = LOCAL_TIME ( 13, 43, 2.000000000000000000, #17 ) ;
#68 = PERSON ( 'UNSPECIFIED', 'UNSPECIFIED', 'UNSPECIFIED', ('UNSPECIFIED'), ('UNSPECIFIED'), ('UNSPECIFIED') ) ;
#69 = DIRECTION ( 'NONE',  ( -3.491481338843133355E-15, 1.224646799147353207E-16, -1.000000000000000000 ) ) ;
#70 = ORIENTED_EDGE ( 'NONE', *, *, #85, .T. ) ;
#71 = CARTESIAN_POINT ( 'NONE',  ( 1.375643647504194668E-13, 2.999999999999995559, 39.40000000000000568 ) ) ;
#72 = ORIENTED_EDGE ( 'NONE', *, *, #136, .F. ) ;
#73 = ADVANCED_FACE ( 'NONE', ( #97, #243 ), #191, .T. ) ;
#74 = MECHANICAL_CONTEXT ( 'NONE', #200, 'mechanical' ) ;
#75 = ORIENTED_EDGE ( 'NONE', *, *, #204, .T. ) ;
#76 = CIRCLE ( 'NONE', #236, 2.400000000000000799 ) ;
#77 = PERSON_AND_ORGANIZATION ( #68, #231 ) ;
#78 = DIRECTION ( 'NONE',  ( 4.275831445896959482E-31, 1.000000000000000000, 1.224646799147353207E-16 ) ) ;
#79 = APPROVAL_PERSON_ORGANIZATION ( #80, #8, #128 ) ;
#80 = PERSON_AND_ORGANIZATION ( #68, #231 ) ;
#81 = CARTESIAN_POINT ( 'NONE',  ( 1.375643647504194668E-13, -4.825108388640572095E-15, 39.40000000000000568 ) ) ;
#82 = DATE_TIME_ROLE ( 'classification_date' ) ;
#83 = DIRECTION ( 'NONE',  ( -3.491481338843133355E-15, 1.224646799147353207E-16, -1.000000000000000000 ) ) ;
#84 = CARTESIAN_POINT ( 'NONE',  ( 8.379555213223513742E-15, 0.0000000000000000000, 2.399999999999998579 ) ) ;
#85 = EDGE_CURVE ( 'NONE', #52, #52, #76, .T. ) ;
#86 = CARTESIAN_POINT ( 'NONE',  ( 0.0000000000000000000, 0.0000000000000000000, 0.0000000000000000000 ) ) ;
#87 = DESIGN_CONTEXT ( 'detailed design', #46, 'design' ) ;
#88 = CC_DESIGN_DATE_AND_TIME_ASSIGNMENT ( #203, #82, ( #156 ) ) ;
#89 = CIRCLE ( 'NONE', #25, 0.4000000000000000222 ) ;
#90 = ORIENTED_EDGE ( 'NONE', *, *, #140, .T. ) ;
#91 = CC_DESIGN_APPROVAL ( #62, ( #1 ) ) ;
#92 = PERSON_AND_ORGANIZATION ( #68, #231 ) ;
#93 = CALENDAR_DATE ( 2021, 17, 11 ) ;
#94 = DIRECTION ( 'NONE',  ( 3.491481338843133355E-15, -1.237615716775288637E-16, 1.000000000000000000 ) ) ;
#95 = ADVANCED_BREP_SHAPE_REPRESENTATION ( '305280', ( #63, #229, #215 ), #181 ) ;
#96 = DATE_AND_TIME ( #153, #6 ) ;
#97 = FACE_OUTER_BOUND ( 'NONE', #103, .T. ) ;
#98 = CIRCLE ( 'NONE', #51, 0.4000000000000001887 ) ;
#99 = CARTESIAN_POINT ( 'NONE',  ( 0.0000000000000000000, 0.0000000000000000000, 0.0000000000000000000 ) ) ;
#100 = PRODUCT_DEFINITION ( 'UNKNOWN', '', #1, #87 ) ;
#101 = CC_DESIGN_PERSON_AND_ORGANIZATION_ASSIGNMENT ( #184, #107, ( #49 ) ) ;
#102 = CC_DESIGN_SECURITY_CLASSIFICATION ( #156, ( #1 ) ) ;
#103 = EDGE_LOOP ( 'NONE', ( #75 ) ) ;
#104 = VERTEX_POINT ( 'NONE', #71 ) ;
#105 = ADVANCED_FACE ( 'NONE', ( #39 ), #133, .F. ) ;
#106 = CC_DESIGN_APPROVAL ( #8, ( #100 ) ) ;
#107 = PERSON_AND_ORGANIZATION_ROLE ( 'design_owner' ) ;
#108 = CALENDAR_DATE ( 2021, 17, 11 ) ;
#109 = ORIENTED_EDGE ( 'NONE', *, *, #141, .T. ) ;
#110 = APPROVAL_STATUS ( 'not_yet_approved' ) ;
#111 = CC_DESIGN_APPROVAL ( #172, ( #156 ) ) ;
#112 = DIRECTION ( 'NONE',  ( -3.491481338843133355E-15, 1.224646799147353207E-16, -1.000000000000000000 ) ) ;
#113 = CARTESIAN_POINT ( 'NONE',  ( 2.793185071074504712E-15, -1.156482317317870739E-16, 0.7999999999999993783 ) ) ;
#114 = ADVANCED_FACE ( 'NONE', ( #228, #44 ), #152, .T. ) ;
#115 = DIRECTION ( 'NONE',  ( 3.491481338843133355E-15, -1.237615716775288637E-16, 1.000000000000000000 ) ) ;
#116 = DIRECTION ( 'NONE',  ( -3.491481338843133355E-15, 1.224646799147353207E-16, -1.000000000000000000 ) ) ;
#117 = FACE_OUTER_BOUND ( 'NONE', #222, .T. ) ;
#118 = CIRCLE ( 'NONE', #26, 0.3400000000000003020 ) ;
#119 = CC_DESIGN_PERSON_AND_ORGANIZATION_ASSIGNMENT ( #92, #43, ( #1 ) ) ;
#120 = APPROVAL_DATE_TIME ( #241, #172 ) ;
#121 = CARTESIAN_POINT ( 'NONE',  ( 8.379555213223513742E-15, -0.3400000000000005795, 2.399999999999998579 ) ) ;
#122 = EDGE_LOOP ( 'NONE', ( #198 ) ) ;
#123 = EDGE_LOOP ( 'NONE', ( #70 ) ) ;
#124 = AXIS2_PLACEMENT_3D ( 'NONE', #154, #19, #190 ) ;
#125 = VERTEX_POINT ( 'NONE', #31 ) ;
#126 = CALENDAR_DATE ( 2021, 17, 11 ) ;
#127 = DIRECTION ( 'NONE',  ( 3.491481338843133355E-15, -1.237615716775288637E-16, 1.000000000000000000 ) ) ;
#128 = APPROVAL_ROLE ( '' ) ;
#129 = CALENDAR_DATE ( 2021, 17, 11 ) ;
#130 = CARTESIAN_POINT ( 'NONE',  ( 8.379555213223513742E-15, -2.970277720260691052E-16, 2.399999999999998579 ) ) ;
#131 = AXIS2_PLACEMENT_3D ( 'NONE', #194, #168, #27 ) ;
#132 = DIRECTION ( 'NONE',  ( 3.491481338843133355E-15, -1.237615716775288637E-16, 1.000000000000000000 ) ) ;
#133 = PLANE ( 'NONE',  #124 ) ;
#134 = CIRCLE ( 'NONE', #131, 0.3400000000000000799 ) ;
#135 = APPROVAL_PERSON_ORGANIZATION ( #205, #62, #169 ) ;
#136 = EDGE_CURVE ( 'NONE', #147, #147, #118, .T. ) ;
#137 = PRODUCT_DEFINITION_SHAPE ( 'NONE', 'NONE',  #100 ) ;
#138 = AXIS2_PLACEMENT_3D ( 'NONE', #66, #116, #176 ) ;
#139 = CARTESIAN_POINT ( 'NONE',  ( 2.793185071074503529E-15, -0.3400000000000001910, 0.7999999999999990452 ) ) ;
#140 = EDGE_CURVE ( 'NONE', #104, #104, #159, .T. ) ;
#141 = EDGE_CURVE ( 'NONE', #55, #55, #98, .T. ) ;
#142 = EDGE_LOOP ( 'NONE', ( #109 ) ) ;
#143 = DIRECTION ( 'NONE',  ( 4.275831445896958607E-31, 1.000000000000000000, 1.224646799147353207E-16 ) ) ;
#144 = DIRECTION ( 'NONE',  ( 1.000000000000000000, 0.0000000000000000000, 0.0000000000000000000 ) ) ;
#145 = EDGE_LOOP ( 'NONE', ( #220 ) ) ;
#146 = EDGE_LOOP ( 'NONE', ( #161 ) ) ;
#147 = VERTEX_POINT ( 'NONE', #121 ) ;
#148 = PERSON_AND_ORGANIZATION ( #68, #231 ) ;
#149 = DIRECTION ( 'NONE',  ( 0.0000000000000000000, 1.000000000000000000, 0.0000000000000000000 ) ) ;
#150 = AXIS2_PLACEMENT_3D ( 'NONE', #178, #69, #143 ) ;
#151 = APPROVAL_DATE_TIME ( #207, #8 ) ;
#152 = CYLINDRICAL_SURFACE ( 'NONE', #202, 3.000000000000000000 ) ;
#153 = CALENDAR_DATE ( 2021, 17, 11 ) ;
#154 = CARTESIAN_POINT ( 'NONE',  ( 2.793185071074504712E-15, -1.156482317317870739E-16, 0.7999999999999993783 ) ) ;
#155 = DIRECTION ( 'NONE',  ( -4.321112179779889011E-31, -1.000000000000000000, -1.237615716775288637E-16 ) ) ;
#156 = SECURITY_CLASSIFICATION ( '', '', #188 ) ;
#157 = FACE_OUTER_BOUND ( 'NONE', #142, .T. ) ;
#158 = AXIS2_PLACEMENT_3D ( 'NONE', #5, #127, #149 ) ;
#159 = CIRCLE ( 'NONE', #56, 3.000000000000000444 ) ;
#160 =( NAMED_UNIT ( * ) PLANE_ANGLE_UNIT ( ) SI_UNIT ( $, .RADIAN. ) );
#161 = ORIENTED_EDGE ( 'NONE', *, *, #29, .F. ) ;
#162 = APPLICATION_PROTOCOL_DEFINITION ( 'international standard', 'config_control_design', 1994, #200 ) ;
#163 = AXIS2_PLACEMENT_3D ( 'NONE', #47, #115, #195 ) ;
#164 = DATE_AND_TIME ( #126, #57 ) ;
#165 = DIRECTION ( 'NONE',  ( 3.491481338843133355E-15, -1.237615716775288637E-16, 1.000000000000000000 ) ) ;
#166 = APPROVAL_ROLE ( '' ) ;
#167 = CC_DESIGN_DATE_AND_TIME_ASSIGNMENT ( #96, #239, ( #100 ) ) ;
#168 = DIRECTION ( 'NONE',  ( 3.491481338843133355E-15, -1.237615716775288637E-16, 1.000000000000000000 ) ) ;
#169 = APPROVAL_ROLE ( '' ) ;
#170 = CARTESIAN_POINT ( 'NONE',  ( 1.396592535537253342E-13, 1.799711739194222561E-32, 40.00000000000000000 ) ) ;
#171 = DIRECTION ( 'NONE',  ( 0.0000000000000000000, 1.000000000000000000, 0.0000000000000000000 ) ) ;
#172 = APPROVAL ( #38, 'UNSPECIFIED' ) ;
#173 = CIRCLE ( 'NONE', #158, 3.000000000000000000 ) ;
#174 = FACE_OUTER_BOUND ( 'NONE', #146, .T. ) ;
#175 = UNCERTAINTY_MEASURE_WITH_UNIT (LENGTH_MEASURE( 1.000000000000000082E-05 ), #182, 'distance_accuracy_value', 'NONE');
#176 = DIRECTION ( 'NONE',  ( 0.0000000000000000000, 1.000000000000000000, 0.0000000000000000000 ) ) ;
#177 = APPROVAL_PERSON_ORGANIZATION ( #77, #172, #166 ) ;
#178 = CARTESIAN_POINT ( 'NONE',  ( -6.413747168845438786E-31, 2.249639673992786412E-32, -1.836970198721029934E-16 ) ) ;
#179 = ADVANCED_FACE ( 'NONE', ( #174, #24 ), #193, .F. ) ;
#180 = CLOSED_SHELL ( 'NONE', ( #114, #213, #54, #73, #179, #105 ) ) ;
#181 =( GEOMETRIC_REPRESENTATION_CONTEXT ( 3 ) GLOBAL_UNCERTAINTY_ASSIGNED_CONTEXT ( ( #175 ) ) GLOBAL_UNIT_ASSIGNED_CONTEXT ( ( #182, #160, #219 ) ) REPRESENTATION_CONTEXT ( 'NONE', 'WORKASPACE' ) );
#182 =( LENGTH_UNIT ( ) NAMED_UNIT ( * ) SI_UNIT ( .MILLI., .METRE. ) );
#183 = ORIENTED_EDGE ( 'NONE', *, *, #85, .F. ) ;
#184 = PERSON_AND_ORGANIZATION ( #68, #231 ) ;
#185 = EDGE_LOOP ( 'NONE', ( #3 ) ) ;
#186 = COORDINATED_UNIVERSAL_TIME_OFFSET ( 1, 0, .AHEAD. ) ;
#187 = EDGE_CURVE ( 'NONE', #125, #125, #89, .T. ) ;
#188 = SECURITY_CLASSIFICATION_LEVEL ( 'unclassified' ) ;
#189 = COORDINATED_UNIVERSAL_TIME_OFFSET ( 1, 0, .AHEAD. ) ;
#190 = DIRECTION ( 'NONE',  ( -4.275831445896958607E-31, -1.000000000000000000, -1.224646799147353207E-16 ) ) ;
#191 = CYLINDRICAL_SURFACE ( 'NONE', #28, 0.3400000000000001910 ) ;
#192 = DIRECTION ( 'NONE',  ( -4.275831445896958607E-31, -1.000000000000000000, -1.224646799147353207E-16 ) ) ;
#193 = TOROIDAL_SURFACE ( 'NONE', #18, 11.33999999999999986, 11.00000000000000000 ) ;
#194 = CARTESIAN_POINT ( 'NONE',  ( 2.793185071074503529E-15, -9.900925734202296522E-17, 0.7999999999999990452 ) ) ;
#195 = DIRECTION ( 'NONE',  ( -4.321112179779889011E-31, -1.000000000000000000, -1.237615716775288637E-16 ) ) ;
#196 = SHAPE_DEFINITION_REPRESENTATION ( #137, #95 ) ;
#197 = CARTESIAN_POINT ( 'NONE',  ( 0.0000000000000000000, 0.0000000000000000000, 0.0000000000000000000 ) ) ;
#198 = ORIENTED_EDGE ( 'NONE', *, *, #187, .F. ) ;
#199 = ADVANCED_FACE ( 'NONE', ( #208 ), #42, .T. ) ;
#200 = APPLICATION_CONTEXT ( 'configuration controlled 3d designs of mechanical parts and assemblies' ) ;
#201 = EDGE_LOOP ( 'NONE', ( #90 ) ) ;
#202 = AXIS2_PLACEMENT_3D ( 'NONE', #99, #61, #78 ) ;
#203 = DATE_AND_TIME ( #108, #232 ) ;
#204 = EDGE_CURVE ( 'NONE', #32, #32, #134, .T. ) ;
#205 = PERSON_AND_ORGANIZATION ( #68, #231 ) ;
#206 = CARTESIAN_POINT ( 'NONE',  ( 1.396592535537253342E-13, -4.898587196589413026E-15, 40.00000000000000000 ) ) ;
#207 = DATE_AND_TIME ( #129, #242 ) ;
#208 = FACE_OUTER_BOUND ( 'NONE', #237, .T. ) ;
#209 = COORDINATED_UNIVERSAL_TIME_OFFSET ( 1, 0, .AHEAD. ) ;
#210 = PLANE ( 'NONE',  #41 ) ;
#211 = DIRECTION ( 'NONE',  ( 0.0000000000000000000, -1.000000000000000000, 0.0000000000000000000 ) ) ;
#212 = DIRECTION ( 'NONE',  ( -4.321112179779885508E-31, -1.000000000000000000, -1.237615716775288390E-16 ) ) ;
#213 = ADVANCED_FACE ( 'NONE', ( #240, #117 ), #235, .T. ) ;
#214 = CC_DESIGN_PERSON_AND_ORGANIZATION_ASSIGNMENT ( #16, #40, ( #100 ) ) ;
#215 = AXIS2_PLACEMENT_3D ( 'NONE', #197, #10, #144 ) ;
#216 = PLANE ( 'NONE',  #150 ) ;
#217 = ADVANCED_FACE ( 'NONE', ( #157, #7 ), #218, .T. ) ;
#218 = CYLINDRICAL_SURFACE ( 'NONE', #163, 0.4000000000000000777 ) ;
#219 =( NAMED_UNIT ( * ) SI_UNIT ( $, .STERADIAN. ) SOLID_ANGLE_UNIT ( ) );
#220 = ORIENTED_EDGE ( 'NONE', *, *, #136, .T. ) ;
#221 = CARTESIAN_POINT ( 'NONE',  ( 3.342211840695213170E-14, 2.999999999999999112, 9.572475165519918505 ) ) ;
#222 = EDGE_LOOP ( 'NONE', ( #50 ) ) ;
#223 = EDGE_LOOP ( 'NONE', ( #15 ) ) ;
#224 = APPROVAL_DATE_TIME ( #164, #62 ) ;
#225 = DIRECTION ( 'NONE',  ( 4.275831445896958607E-31, 1.000000000000000000, 1.224646799147353207E-16 ) ) ;
#226 = DIRECTION ( 'NONE',  ( 0.0000000000000000000, -1.000000000000000000, 0.0000000000000000000 ) ) ;
#227 = PERSON_AND_ORGANIZATION ( #68, #231 ) ;
#228 = FACE_OUTER_BOUND ( 'NONE', #201, .T. ) ;
#229 = MANIFOLD_SOLID_BREP ( 'Corps-Déplacer/Copier1[2]', #48 ) ;
#230 = DIRECTION ( 'NONE',  ( -4.392433471820873114E-31, -1.000000000000000000, -1.237615716775288637E-16 ) ) ;
#231 = ORGANIZATION ( 'UNSPECIFIED', 'UNSPECIFIED', '' ) ;
#232 = LOCAL_TIME ( 13, 43, 2.000000000000000000, #209 ) ;
#233 = DIRECTION ( 'NONE',  ( 3.491481338843133355E-15, -1.237615716775288637E-16, 1.000000000000000000 ) ) ;
#234 = ADVANCED_FACE ( 'NONE', ( #30 ), #216, .T. ) ;
#235 = CONICAL_SURFACE ( 'NONE', #138, 3.000000000000000444, 0.7853981633974511656 ) ;
#236 = AXIS2_PLACEMENT_3D ( 'NONE', #206, #112, #22 ) ;
#237 = EDGE_LOOP ( 'NONE', ( #53 ) ) ;
#238 = EDGE_LOOP ( 'NONE', ( #183 ) ) ;
#239 = DATE_TIME_ROLE ( 'creation_date' ) ;
#240 = FACE_BOUND ( 'NONE', #123, .T. ) ;
#241 = DATE_AND_TIME ( #93, #67 ) ;
#242 = LOCAL_TIME ( 13, 43, 2.000000000000000000, #189 ) ;
#243 = FACE_OUTER_BOUND ( 'NONE', #12, .T. ) ;
ENDSEC;
END-ISO-10303-21;
