ISO-10303-21;
HEADER;
FILE_DESCRIPTION (( 'STEP AP203' ),
    '1' );
FILE_NAME ('305279.step',
    '2021-11-17T12:43:02',
    ( '' ),
    ( '' ),
    'SwSTEP 2.0',
    'SolidWorks 2019',
    '' );
FILE_SCHEMA (( 'CONFIG_CONTROL_DESIGN' ));
ENDSEC;

DATA;
#1 = FACE_OUTER_BOUND ( 'NONE', #222, .T. ) ;
#2 = SHAPE_DEFINITION_REPRESENTATION ( #117, #50 ) ;
#3 = EDGE_LOOP ( 'NONE', ( #165 ) ) ;
#4 = CC_DESIGN_DATE_AND_TIME_ASSIGNMENT ( #43, #44, ( #219 ) ) ;
#5 = CARTESIAN_POINT ( 'NONE',  ( -2.673526672032671908E-30, 9.476775922342188107E-32, -7.657284724077940909E-16 ) ) ;
#6 = CYLINDRICAL_SURFACE ( 'NONE', #25, 3.000000000000000000 ) ;
#7 = UNCERTAINTY_MEASURE_WITH_UNIT (LENGTH_MEASURE( 1.000000000000000082E-05 ), #110, 'distance_accuracy_value', 'NONE');
#8 = DIRECTION ( 'NONE',  ( -4.275831445896958607E-31, -1.000000000000000000, -1.224646799147353207E-16 ) ) ;
#9 = CARTESIAN_POINT ( 'NONE',  ( 1.375643647504194668E-13, 2.999999999999995559, 39.40000000000000568 ) ) ;
#10 = CALENDAR_DATE ( 2021, 17, 11 ) ;
#11 = EDGE_LOOP ( 'NONE', ( #242 ) ) ;
#12 = PERSON_AND_ORGANIZATION ( #193, #58 ) ;
#13 = MANIFOLD_SOLID_BREP ( 'Corps-Déplacer/Copier1[2]', #42 ) ;
#14 = VERTEX_POINT ( 'NONE', #37 ) ;
#15 = EDGE_LOOP ( 'NONE', ( #168 ) ) ;
#16 = DIRECTION ( 'NONE',  ( 1.000000000000000000, 0.0000000000000000000, 0.0000000000000000000 ) ) ;
#17 = EDGE_CURVE ( 'NONE', #159, #159, #130, .T. ) ;
#18 = CLOSED_SHELL ( 'NONE', ( #124, #144, #45, #150, #190, #64 ) ) ;
#19 = CC_DESIGN_APPROVAL ( #115, ( #219 ) ) ;
#20 = SECURITY_CLASSIFICATION_LEVEL ( 'unclassified' ) ;
#21 = ORIENTED_EDGE ( 'NONE', *, *, #180, .F. ) ;
#22 = PERSON_AND_ORGANIZATION_ROLE ( 'design_supplier' ) ;
#23 = CIRCLE ( 'NONE', #154, 0.2499999999999993616 ) ;
#24 = DIRECTION ( 'NONE',  ( -4.275831445896958607E-31, -1.000000000000000000, -1.224646799147353207E-16 ) ) ;
#25 = AXIS2_PLACEMENT_3D ( 'NONE', #228, #65, #66 ) ;
#26 = CARTESIAN_POINT ( 'NONE',  ( 3.393241972845103545E-14, -1.017150723373022345E-15, 9.718631272906701923 ) ) ;
#27 = TOROIDAL_SURFACE ( 'NONE', #142, 13.71000000000000085, 13.49999999999999822 ) ;
#28 = CARTESIAN_POINT ( 'NONE',  ( 5.237222008264704766E-15, -1.856423575162934681E-16, 1.500000000000001332 ) ) ;
#29 = DIRECTION ( 'NONE',  ( -3.491481338843133355E-15, 1.224646799147353207E-16, -1.000000000000000000 ) ) ;
#30 = AXIS2_PLACEMENT_3D ( 'NONE', #32, #83, #8 ) ;
#31 = CARTESIAN_POINT ( 'NONE',  ( 1.745740669421562142E-15, -6.188078583876427161E-17, 0.4999999999999987232 ) ) ;
#32 = CARTESIAN_POINT ( 'NONE',  ( 1.745740669421567467E-15, 2.249639673992786412E-32, 0.5000000000000002220 ) ) ;
#33 = EDGE_LOOP ( 'NONE', ( #177 ) ) ;
#34 = PERSON_AND_ORGANIZATION ( #193, #58 ) ;
#35 = PERSON_AND_ORGANIZATION ( #193, #58 ) ;
#36 = CC_DESIGN_PERSON_AND_ORGANIZATION_ASSIGNMENT ( #94, #69, ( #227 ) ) ;
#37 = CARTESIAN_POINT ( 'NONE',  ( 3.393241972845103545E-14, 2.999999999999999112, 9.718631272906701923 ) ) ;
#38 = AXIS2_PLACEMENT_3D ( 'NONE', #48, #232, #116 ) ;
#39 = CARTESIAN_POINT ( 'NONE',  ( 1.745740669421562142E-15, -0.2500000000000012212, 0.4999999999999987232 ) ) ;
#40 = DIRECTION ( 'NONE',  ( -3.491481338843133355E-15, 1.224646799147353207E-16, -1.000000000000000000 ) ) ;
#41 = DIRECTION ( 'NONE',  ( 4.275831445896958607E-31, 1.000000000000000000, 1.224646799147353207E-16 ) ) ;
#42 = CLOSED_SHELL ( 'NONE', ( #203, #235, #226 ) ) ;
#43 = DATE_AND_TIME ( #195, #184 ) ;
#44 = DATE_TIME_ROLE ( 'classification_date' ) ;
#45 = ADVANCED_FACE ( 'NONE', ( #127 ), #225, .F. ) ;
#46 = CARTESIAN_POINT ( 'NONE',  ( 1.745740669421562142E-15, -6.188078583876427161E-17, 0.4999999999999987232 ) ) ;
#47 = DIRECTION ( 'NONE',  ( 3.491481338843133355E-15, -1.237615716775288637E-16, 1.000000000000000000 ) ) ;
#48 = CARTESIAN_POINT ( 'NONE',  ( 0.0000000000000000000, 0.0000000000000000000, 0.0000000000000000000 ) ) ;
#49 = AXIS2_PLACEMENT_3D ( 'NONE', #187, #129, #41 ) ;
#50 = ADVANCED_BREP_SHAPE_REPRESENTATION ( '305279', ( #97, #13, #156 ), #79 ) ;
#51 = VERTEX_POINT ( 'NONE', #9 ) ;
#52 = AXIS2_PLACEMENT_3D ( 'NONE', #196, #214, #119 ) ;
#53 = COORDINATED_UNIVERSAL_TIME_OFFSET ( 1, 0, .AHEAD. ) ;
#54 = VERTEX_POINT ( 'NONE', #89 ) ;
#55 = CALENDAR_DATE ( 2021, 17, 11 ) ;
#56 = ORIENTED_EDGE ( 'NONE', *, *, #170, .F. ) ;
#57 = AXIS2_PLACEMENT_3D ( 'NONE', #26, #47, #105 ) ;
#58 = ORGANIZATION ( 'UNSPECIFIED', 'UNSPECIFIED', '' ) ;
#59 = DIRECTION ( 'NONE',  ( 0.0000000000000000000, 1.000000000000000000, 0.0000000000000000000 ) ) ;
#60 = EDGE_LOOP ( 'NONE', ( #93 ) ) ;
#61 = APPROVAL ( #92, 'UNSPECIFIED' ) ;
#62 = FACE_OUTER_BOUND ( 'NONE', #111, .T. ) ;
#63 = FACE_OUTER_BOUND ( 'NONE', #113, .T. ) ;
#64 = ADVANCED_FACE ( 'NONE', ( #172 ), #199, .F. ) ;
#65 = DIRECTION ( 'NONE',  ( -3.491481338843133355E-15, 1.224646799147353207E-16, -1.000000000000000000 ) ) ;
#66 = DIRECTION ( 'NONE',  ( 4.275831445896959482E-31, 1.000000000000000000, 1.224646799147353207E-16 ) ) ;
#67 = DIRECTION ( 'NONE',  ( 0.0000000000000000000, 1.000000000000000000, 0.0000000000000000000 ) ) ;
#68 = APPLICATION_PROTOCOL_DEFINITION ( 'international standard', 'config_control_design', 1994, #157 ) ;
#69 = PERSON_AND_ORGANIZATION_ROLE ( 'design_owner' ) ;
#70 = EDGE_LOOP ( 'NONE', ( #21 ) ) ;
#71 = CARTESIAN_POINT ( 'NONE',  ( 1.745740669421562142E-15, -0.2100000000000011025, 0.4999999999999987232 ) ) ;
#72 = LOCAL_TIME ( 13, 43, 2.000000000000000000, #188 ) ;
#73 = DATE_AND_TIME ( #169, #72 ) ;
#74 = EDGE_LOOP ( 'NONE', ( #148 ) ) ;
#75 = EDGE_CURVE ( 'NONE', #158, #158, #167, .T. ) ;
#76 = ORIENTED_EDGE ( 'NONE', *, *, #166, .F. ) ;
#77 = DIRECTION ( 'NONE',  ( 3.491481338843133355E-15, -1.224646799147353207E-16, 1.000000000000000000 ) ) ;
#78 = AXIS2_PLACEMENT_3D ( 'NONE', #135, #29, #211 ) ;
#79 =( GEOMETRIC_REPRESENTATION_CONTEXT ( 3 ) GLOBAL_UNCERTAINTY_ASSIGNED_CONTEXT ( ( #7 ) ) GLOBAL_UNIT_ASSIGNED_CONTEXT ( ( #110, #185, #182 ) ) REPRESENTATION_CONTEXT ( 'NONE', 'WORKASPACE' ) );
#80 = PERSON_AND_ORGANIZATION ( #193, #58 ) ;
#81 = FACE_OUTER_BOUND ( 'NONE', #15, .T. ) ;
#82 = PRODUCT_RELATED_PRODUCT_CATEGORY ( 'detail', '', ( #227 ) ) ;
#83 = DIRECTION ( 'NONE',  ( 3.491481338843133355E-15, -1.224646799147353207E-16, 1.000000000000000000 ) ) ;
#84 = CC_DESIGN_PERSON_AND_ORGANIZATION_ASSIGNMENT ( #207, #243, ( #122 ) ) ;
#85 = FACE_OUTER_BOUND ( 'NONE', #74, .T. ) ;
#86 = FACE_OUTER_BOUND ( 'NONE', #70, .T. ) ;
#87 = AXIS2_PLACEMENT_3D ( 'NONE', #46, #174, #114 ) ;
#88 = CC_DESIGN_SECURITY_CLASSIFICATION ( #219, ( #122 ) ) ;
#89 = CARTESIAN_POINT ( 'NONE',  ( -2.781554476527169001E-30, -0.2499999999999993616, -7.966688653271762082E-16 ) ) ;
#90 = DATE_TIME_ROLE ( 'creation_date' ) ;
#91 = ORIENTED_EDGE ( 'NONE', *, *, #75, .T. ) ;
#92 = APPROVAL_STATUS ( 'not_yet_approved' ) ;
#93 = ORIENTED_EDGE ( 'NONE', *, *, #166, .T. ) ;
#94 = PERSON_AND_ORGANIZATION ( #193, #58 ) ;
#95 = CONICAL_SURFACE ( 'NONE', #52, 3.000000000000000444, 0.7853981633974511656 ) ;
#96 = CARTESIAN_POINT ( 'NONE',  ( 1.396592535537253342E-13, -4.898587196589413026E-15, 40.00000000000000000 ) ) ;
#97 = MANIFOLD_SOLID_BREP ( 'Corps-Déplacer/Copier1[1]', #18 ) ;
#98 = CIRCLE ( 'NONE', #194, 0.2100000000000029066 ) ;
#99 = COORDINATED_UNIVERSAL_TIME_OFFSET ( 1, 0, .AHEAD. ) ;
#100 = AXIS2_PLACEMENT_3D ( 'NONE', #139, #77, #24 ) ;
#101 = DIRECTION ( 'NONE',  ( 3.491481338843133355E-15, -1.237615716775288637E-16, 1.000000000000000000 ) ) ;
#102 = DIRECTION ( 'NONE',  ( 3.491481338843133355E-15, -1.237615716775288637E-16, 1.000000000000000000 ) ) ;
#103 = FACE_OUTER_BOUND ( 'NONE', #3, .T. ) ;
#104 = CARTESIAN_POINT ( 'NONE',  ( 0.0000000000000000000, 0.0000000000000000000, 0.0000000000000000000 ) ) ;
#105 = DIRECTION ( 'NONE',  ( 0.0000000000000000000, 1.000000000000000000, 0.0000000000000000000 ) ) ;
#106 = APPROVAL ( #146, 'UNSPECIFIED' ) ;
#107 = DIRECTION ( 'NONE',  ( 3.491481338843133355E-15, -1.237615716775288637E-16, 1.000000000000000000 ) ) ;
#108 = APPROVAL_DATE_TIME ( #123, #106 ) ;
#109 = VERTEX_POINT ( 'NONE', #237 ) ;
#110 =( LENGTH_UNIT ( ) NAMED_UNIT ( * ) SI_UNIT ( .MILLI., .METRE. ) );
#111 = EDGE_LOOP ( 'NONE', ( #189 ) ) ;
#112 = ORIENTED_EDGE ( 'NONE', *, *, #17, .T. ) ;
#113 = EDGE_LOOP ( 'NONE', ( #76 ) ) ;
#114 = DIRECTION ( 'NONE',  ( 0.0000000000000000000, -1.000000000000000000, 0.0000000000000000000 ) ) ;
#115 = APPROVAL ( #164, 'UNSPECIFIED' ) ;
#116 = DIRECTION ( 'NONE',  ( -4.321112179779889011E-31, -1.000000000000000000, -1.237615716775288637E-16 ) ) ;
#117 = PRODUCT_DEFINITION_SHAPE ( 'NONE', 'NONE',  #138 ) ;
#118 = CYLINDRICAL_SURFACE ( 'NONE', #38, 0.2100000000000019629 ) ;
#119 = DIRECTION ( 'NONE',  ( 0.0000000000000000000, 1.000000000000000000, 0.0000000000000000000 ) ) ;
#120 = PLANE ( 'NONE',  #78 ) ;
#121 = PLANE ( 'NONE',  #100 ) ;
#122 = PRODUCT_DEFINITION_FORMATION_WITH_SPECIFIED_SOURCE ( 'ANY', '', #227, .NOT_KNOWN. ) ;
#123 = DATE_AND_TIME ( #204, #173 ) ;
#124 = ADVANCED_FACE ( 'NONE', ( #85, #81 ), #6, .T. ) ;
#125 = DATE_AND_TIME ( #55, #163 ) ;
#126 = APPROVAL_PERSON_ORGANIZATION ( #229, #115, #210 ) ;
#127 = FACE_OUTER_BOUND ( 'NONE', #224, .T. ) ;
#128 = CARTESIAN_POINT ( 'NONE',  ( 1.375643647504194668E-13, -4.825108388640572095E-15, 39.40000000000000568 ) ) ;
#129 = DIRECTION ( 'NONE',  ( -3.491481338843133355E-15, 1.224646799147353207E-16, -1.000000000000000000 ) ) ;
#130 = CIRCLE ( 'NONE', #161, 2.400000000000000799 ) ;
#131 = CARTESIAN_POINT ( 'NONE',  ( 5.237222008264722910E-15, 0.0000000000000000000, 1.500000000000006439 ) ) ;
#132 = AXIS2_PLACEMENT_3D ( 'NONE', #128, #143, #67 ) ;
#133 = APPLICATION_CONTEXT ( 'configuration controlled 3d designs of mechanical parts and assemblies' ) ;
#134 = DIRECTION ( 'NONE',  ( 3.491481338843133355E-15, -1.237615716775288637E-16, 1.000000000000000000 ) ) ;
#135 = CARTESIAN_POINT ( 'NONE',  ( -6.413747168845438786E-31, 2.249639673992786412E-32, -1.836970198721029934E-16 ) ) ;
#136 = FACE_OUTER_BOUND ( 'NONE', #60, .T. ) ;
#137 = FACE_OUTER_BOUND ( 'NONE', #153, .T. ) ;
#138 = PRODUCT_DEFINITION ( 'UNKNOWN', '', #122, #140 ) ;
#139 = CARTESIAN_POINT ( 'NONE',  ( 1.745740669421567467E-15, 2.249639673992786412E-32, 0.5000000000000002220 ) ) ;
#140 = DESIGN_CONTEXT ( 'detailed design', #157, 'design' ) ;
#141 = DIRECTION ( 'NONE',  ( 0.0000000000000000000, -1.000000000000000000, 0.0000000000000000000 ) ) ;
#142 = AXIS2_PLACEMENT_3D ( 'NONE', #131, #191, #178 ) ;
#143 = DIRECTION ( 'NONE',  ( -3.491481338843133355E-15, 1.224646799147353207E-16, -1.000000000000000000 ) ) ;
#144 = ADVANCED_FACE ( 'NONE', ( #209, #62 ), #95, .T. ) ;
#145 = PERSON_AND_ORGANIZATION_ROLE ( 'creator' ) ;
#146 = APPROVAL_STATUS ( 'not_yet_approved' ) ;
#147 = CC_DESIGN_DATE_AND_TIME_ASSIGNMENT ( #205, #90, ( #138 ) ) ;
#148 = ORIENTED_EDGE ( 'NONE', *, *, #215, .T. ) ;
#149 = APPROVAL_DATE_TIME ( #73, #115 ) ;
#150 = ADVANCED_FACE ( 'NONE', ( #197, #63 ), #118, .T. ) ;
#151 = EDGE_LOOP ( 'NONE', ( #112 ) ) ;
#152 = EDGE_CURVE ( 'NONE', #14, #14, #155, .T. ) ;
#153 = EDGE_LOOP ( 'NONE', ( #160 ) ) ;
#154 = AXIS2_PLACEMENT_3D ( 'NONE', #5, #101, #230 ) ;
#155 = CIRCLE ( 'NONE', #57, 3.000000000000000000 ) ;
#156 = AXIS2_PLACEMENT_3D ( 'NONE', #186, #202, #16 ) ;
#157 = APPLICATION_CONTEXT ( 'configuration controlled 3d designs of mechanical parts and assemblies' ) ;
#158 = VERTEX_POINT ( 'NONE', #39 ) ;
#159 = VERTEX_POINT ( 'NONE', #236 ) ;
#160 = ORIENTED_EDGE ( 'NONE', *, *, #152, .F. ) ;
#161 = AXIS2_PLACEMENT_3D ( 'NONE', #96, #40, #59 ) ;
#162 = PERSON_AND_ORGANIZATION ( #193, #58 ) ;
#163 = LOCAL_TIME ( 13, 43, 2.000000000000000000, #221 ) ;
#164 = APPROVAL_STATUS ( 'not_yet_approved' ) ;
#165 = ORIENTED_EDGE ( 'NONE', *, *, #180, .T. ) ;
#166 = EDGE_CURVE ( 'NONE', #109, #109, #98, .T. ) ;
#167 = CIRCLE ( 'NONE', #176, 0.2500000000000011657 ) ;
#168 = ORIENTED_EDGE ( 'NONE', *, *, #152, .T. ) ;
#169 = CALENDAR_DATE ( 2021, 17, 11 ) ;
#170 = EDGE_CURVE ( 'NONE', #241, #241, #233, .T. ) ;
#171 = DIRECTION ( 'NONE',  ( 0.0000000000000000000, -1.000000000000000000, 0.0000000000000000000 ) ) ;
#172 = FACE_OUTER_BOUND ( 'NONE', #183, .T. ) ;
#173 = LOCAL_TIME ( 13, 43, 2.000000000000000000, #217 ) ;
#174 = DIRECTION ( 'NONE',  ( 3.491481338843133355E-15, -1.237615716775288637E-16, 1.000000000000000000 ) ) ;
#175 = DIRECTION ( 'NONE',  ( -4.321112179779889011E-31, -1.000000000000000000, -1.237615716775288883E-16 ) ) ;
#176 = AXIS2_PLACEMENT_3D ( 'NONE', #31, #134, #171 ) ;
#177 = ORIENTED_EDGE ( 'NONE', *, *, #170, .T. ) ;
#178 = DIRECTION ( 'NONE',  ( -4.116066379512039714E-31, -1.000000000000000000, -1.237615716775288637E-16 ) ) ;
#179 = LOCAL_TIME ( 13, 43, 2.000000000000000000, #53 ) ;
#180 = EDGE_CURVE ( 'NONE', #54, #54, #23, .T. ) ;
#181 = ORIENTED_EDGE ( 'NONE', *, *, #17, .F. ) ;
#182 =( NAMED_UNIT ( * ) SI_UNIT ( $, .STERADIAN. ) SOLID_ANGLE_UNIT ( ) );
#183 = EDGE_LOOP ( 'NONE', ( #56 ) ) ;
#184 = LOCAL_TIME ( 13, 43, 2.000000000000000000, #99 ) ;
#185 =( NAMED_UNIT ( * ) PLANE_ANGLE_UNIT ( ) SI_UNIT ( $, .RADIAN. ) );
#186 = CARTESIAN_POINT ( 'NONE',  ( 0.0000000000000000000, 0.0000000000000000000, 0.0000000000000000000 ) ) ;
#187 = CARTESIAN_POINT ( 'NONE',  ( 1.396592535537253342E-13, 1.799711739194222561E-32, 40.00000000000000000 ) ) ;
#188 = COORDINATED_UNIVERSAL_TIME_OFFSET ( 1, 0, .AHEAD. ) ;
#189 = ORIENTED_EDGE ( 'NONE', *, *, #215, .F. ) ;
#190 = ADVANCED_FACE ( 'NONE', ( #137, #136 ), #27, .F. ) ;
#191 = DIRECTION ( 'NONE',  ( 3.491481338843133355E-15, -1.237615716775288637E-16, 1.000000000000000000 ) ) ;
#192 = PERSON_AND_ORGANIZATION_ROLE ( 'classification_officer' ) ;
#193 = PERSON ( 'UNSPECIFIED', 'UNSPECIFIED', 'UNSPECIFIED', ('UNSPECIFIED'), ('UNSPECIFIED'), ('UNSPECIFIED') ) ;
#194 = AXIS2_PLACEMENT_3D ( 'NONE', #28, #102, #141 ) ;
#195 = CALENDAR_DATE ( 2021, 17, 11 ) ;
#196 = CARTESIAN_POINT ( 'NONE',  ( 1.375643647504194668E-13, -4.825108388640572095E-15, 39.40000000000000568 ) ) ;
#197 = FACE_OUTER_BOUND ( 'NONE', #33, .T. ) ;
#198 = CIRCLE ( 'NONE', #132, 3.000000000000000444 ) ;
#199 = PLANE ( 'NONE',  #30 ) ;
#200 = FACE_OUTER_BOUND ( 'NONE', #11, .T. ) ;
#201 = CC_DESIGN_PERSON_AND_ORGANIZATION_ASSIGNMENT ( #162, #192, ( #219 ) ) ;
#202 = DIRECTION ( 'NONE',  ( 0.0000000000000000000, 0.0000000000000000000, 1.000000000000000000 ) ) ;
#203 = ADVANCED_FACE ( 'NONE', ( #1 ), #121, .T. ) ;
#204 = CALENDAR_DATE ( 2021, 17, 11 ) ;
#205 = DATE_AND_TIME ( #10, #179 ) ;
#206 = CC_DESIGN_APPROVAL ( #106, ( #138 ) ) ;
#207 = PERSON_AND_ORGANIZATION ( #193, #58 ) ;
#208 = APPROVAL_DATE_TIME ( #125, #61 ) ;
#209 = FACE_BOUND ( 'NONE', #151, .T. ) ;
#210 = APPROVAL_ROLE ( '' ) ;
#211 = DIRECTION ( 'NONE',  ( 4.275831445896958607E-31, 1.000000000000000000, 1.224646799147353207E-16 ) ) ;
#212 = CC_DESIGN_APPROVAL ( #61, ( #122 ) ) ;
#213 = CYLINDRICAL_SURFACE ( 'NONE', #223, 0.2500000000000002220 ) ;
#214 = DIRECTION ( 'NONE',  ( -3.491481338843133355E-15, 1.224646799147353207E-16, -1.000000000000000000 ) ) ;
#215 = EDGE_CURVE ( 'NONE', #51, #51, #198, .T. ) ;
#216 = APPROVAL_PERSON_ORGANIZATION ( #12, #61, #239 ) ;
#217 = COORDINATED_UNIVERSAL_TIME_OFFSET ( 1, 0, .AHEAD. ) ;
#218 = MECHANICAL_CONTEXT ( 'NONE', #133, 'mechanical' ) ;
#219 = SECURITY_CLASSIFICATION ( '', '', #20 ) ;
#220 = APPROVAL_ROLE ( '' ) ;
#221 = COORDINATED_UNIVERSAL_TIME_OFFSET ( 1, 0, .AHEAD. ) ;
#222 = EDGE_LOOP ( 'NONE', ( #91 ) ) ;
#223 = AXIS2_PLACEMENT_3D ( 'NONE', #104, #107, #175 ) ;
#224 = EDGE_LOOP ( 'NONE', ( #181 ) ) ;
#225 = PLANE ( 'NONE',  #49 ) ;
#226 = ADVANCED_FACE ( 'NONE', ( #86 ), #120, .T. ) ;
#227 = PRODUCT ( '305279', '305279', '', ( #218 ) ) ;
#228 = CARTESIAN_POINT ( 'NONE',  ( 0.0000000000000000000, 0.0000000000000000000, 0.0000000000000000000 ) ) ;
#229 = PERSON_AND_ORGANIZATION ( #193, #58 ) ;
#230 = DIRECTION ( 'NONE',  ( -4.321112179779889887E-31, -1.000000000000000000, -1.237615716775287897E-16 ) ) ;
#231 = CC_DESIGN_PERSON_AND_ORGANIZATION_ASSIGNMENT ( #35, #145, ( #138 ) ) ;
#232 = DIRECTION ( 'NONE',  ( 3.491481338843133355E-15, -1.237615716775288637E-16, 1.000000000000000000 ) ) ;
#233 = CIRCLE ( 'NONE', #87, 0.2100000000000010469 ) ;
#234 = APPROVAL_PERSON_ORGANIZATION ( #34, #106, #220 ) ;
#235 = ADVANCED_FACE ( 'NONE', ( #103, #200 ), #213, .T. ) ;
#236 = CARTESIAN_POINT ( 'NONE',  ( 1.396592535537253342E-13, 2.399999999999995914, 40.00000000000000000 ) ) ;
#237 = CARTESIAN_POINT ( 'NONE',  ( 5.237222008264704766E-15, -0.2100000000000031009, 1.500000000000001332 ) ) ;
#238 = APPLICATION_PROTOCOL_DEFINITION ( 'international standard', 'config_control_design', 1994, #133 ) ;
#239 = APPROVAL_ROLE ( '' ) ;
#240 = CC_DESIGN_PERSON_AND_ORGANIZATION_ASSIGNMENT ( #80, #22, ( #122 ) ) ;
#241 = VERTEX_POINT ( 'NONE', #71 ) ;
#242 = ORIENTED_EDGE ( 'NONE', *, *, #75, .F. ) ;
#243 = PERSON_AND_ORGANIZATION_ROLE ( 'creator' ) ;
ENDSEC;
END-ISO-10303-21;
