ISO-10303-21;
HEADER;
FILE_DESCRIPTION (( 'STEP AP203' ),
    '1' );
FILE_NAME ('30523.step',
    '2021-11-12T06:57:03',
    ( '' ),
    ( '' ),
    'SwSTEP 2.0',
    'SolidWorks 2019',
    '' );
FILE_SCHEMA (( 'CONFIG_CONTROL_DESIGN' ));
ENDSEC;

DATA;
#1 = DIRECTION ( 'NONE',  ( -4.275831445896959482E-31, -1.000000000000000000, -1.224646799147353454E-16 ) ) ;
#2 = PLANE ( 'NONE',  #6 ) ;
#3 = PRODUCT_DEFINITION_FORMATION_WITH_SPECIFIED_SOURCE ( 'ANY', '', #84, .NOT_KNOWN. ) ;
#4 = CYLINDRICAL_SURFACE ( 'NONE', #141, 8.000000000000000000 ) ;
#5 = COORDINATED_UNIVERSAL_TIME_OFFSET ( 1, 0, .AHEAD. ) ;
#6 = AXIS2_PLACEMENT_3D ( 'NONE', #28, #125, #1 ) ;
#7 = PLANE ( 'NONE',  #131 ) ;
#8 = CALENDAR_DATE ( 2021, 12, 11 ) ;
#9 = DIRECTION ( 'NONE',  ( -3.491481338843133355E-15, 1.224646799147353454E-16, -1.000000000000000000 ) ) ;
#10 = DIRECTION ( 'NONE',  ( -3.491481338843133355E-15, 1.224646799147353454E-16, -1.000000000000000000 ) ) ;
#11 = DIRECTION ( 'NONE',  ( 1.000000000000000000, 0.0000000000000000000, -3.491469808582225998E-15 ) ) ;
#12 = MANIFOLD_SOLID_BREP ( 'Corps-Déplacer/Copier1[1]', #184 ) ;
#13 = CC_DESIGN_PERSON_AND_ORGANIZATION_ASSIGNMENT ( #138, #22, ( #3 ) ) ;
#14 = EDGE_LOOP ( 'NONE', ( #216 ) ) ;
#15 = ORGANIZATION ( 'UNSPECIFIED', 'UNSPECIFIED', '' ) ;
#16 = MANIFOLD_SOLID_BREP ( 'Corps-Déplacer/Copier1[2]', #124 ) ;
#17 = UNCERTAINTY_MEASURE_WITH_UNIT (LENGTH_MEASURE( 1.000000000000000082E-05 ), #67, 'distance_accuracy_value', 'NONE');
#18 = CARTESIAN_POINT ( 'NONE',  ( 0.0000000000000000000, 0.0000000000000000000, 0.0000000000000000000 ) ) ;
#19 = FACE_OUTER_BOUND ( 'NONE', #116, .T. ) ;
#20 = DIRECTION ( 'NONE',  ( 1.000000000000000000, 0.0000000000000000000, -3.491469808582225998E-15 ) ) ;
#21 = DIRECTION ( 'NONE',  ( -3.491481338843133355E-15, 1.224646799147353454E-16, -1.000000000000000000 ) ) ;
#22 = PERSON_AND_ORGANIZATION_ROLE ( 'creator' ) ;
#23 = LOCAL_TIME ( 7, 57, 3.000000000000000000, #5 ) ;
#24 = FACE_OUTER_BOUND ( 'NONE', #165, .T. ) ;
#25 = PERSON_AND_ORGANIZATION ( #198, #15 ) ;
#26 = VERTEX_POINT ( 'NONE', #145 ) ;
#27 = AXIS2_PLACEMENT_3D ( 'NONE', #56, #157, #54 ) ;
#28 = CARTESIAN_POINT ( 'NONE',  ( 8.728703347107833388E-14, 5.999039130647427147E-32, 25.00000000000000000 ) ) ;
#29 = COORDINATED_UNIVERSAL_TIME_OFFSET ( 1, 0, .AHEAD. ) ;
#30 = DIRECTION ( 'NONE',  ( 3.491481338843133355E-15, -0.0000000000000000000, 1.000000000000000000 ) ) ;
#31 = AXIS2_PLACEMENT_3D ( 'NONE', #159, #154, #40 ) ;
#32 = APPROVAL ( #143, 'UNSPECIFIED' ) ;
#33 = ADVANCED_FACE ( 'NONE', ( #101 ), #102, .T. ) ;
#34 = EDGE_LOOP ( 'NONE', ( #68 ) ) ;
#35 = APPROVAL_PERSON_ORGANIZATION ( #25, #114, #209 ) ;
#36 = CIRCLE ( 'NONE', #161, 8.000000000000000000 ) ;
#37 = EDGE_CURVE ( 'NONE', #197, #197, #90, .T. ) ;
#38 = DESIGN_CONTEXT ( 'detailed design', #222, 'design' ) ;
#39 = APPLICATION_PROTOCOL_DEFINITION ( 'international standard', 'config_control_design', 1994, #222 ) ;
#40 = DIRECTION ( 'NONE',  ( 4.275831445896959482E-31, 1.000000000000000000, 1.224646799147353454E-16 ) ) ;
#41 = ORIENTED_EDGE ( 'NONE', *, *, #104, .F. ) ;
#42 = PERSON_AND_ORGANIZATION ( #198, #15 ) ;
#43 = EDGE_LOOP ( 'NONE', ( #203 ) ) ;
#44 = DIRECTION ( 'NONE',  ( 0.0000000000000000000, 1.000000000000000000, 0.0000000000000000000 ) ) ;
#45 = CARTESIAN_POINT ( 'NONE',  ( 2.807150996429879470E-13, -9.846160265144721058E-15, 80.40000000000000568 ) ) ;
#46 = CARTESIAN_POINT ( 'NONE',  ( 2.807150996429879470E-13, 7.999999999999986677, 80.40000000000000568 ) ) ;
#47 = CARTESIAN_POINT ( 'NONE',  ( -4.731839565957903391E-32, 0.0000000000000000000, -1.355252715606880543E-17 ) ) ;
#48 = LOCAL_TIME ( 7, 57, 3.000000000000000000, #179 ) ;
#49 = ORIENTED_EDGE ( 'NONE', *, *, #115, .F. ) ;
#50 = CC_DESIGN_SECURITY_CLASSIFICATION ( #65, ( #3 ) ) ;
#51 = APPROVAL ( #152, 'UNSPECIFIED' ) ;
#52 =( NAMED_UNIT ( * ) PLANE_ANGLE_UNIT ( ) SI_UNIT ( $, .RADIAN. ) );
#53 = DIRECTION ( 'NONE',  ( 1.000000000000000000, 0.0000000000000000000, 0.0000000000000000000 ) ) ;
#54 = DIRECTION ( 'NONE',  ( 4.275831445896959482E-31, 1.000000000000000000, 1.224646799147353454E-16 ) ) ;
#55 = PERSON_AND_ORGANIZATION ( #198, #15 ) ;
#56 = CARTESIAN_POINT ( 'NONE',  ( -1.710332578358783443E-30, 5.999039130647432621E-32, -4.898587196589413815E-16 ) ) ;
#57 = COORDINATED_UNIVERSAL_TIME_OFFSET ( 1, 0, .AHEAD. ) ;
#58 = CIRCLE ( 'NONE', #202, 7.999999999999996447 ) ;
#59 = DIRECTION ( 'NONE',  ( 3.491481338843133355E-15, -0.0000000000000000000, 1.000000000000000000 ) ) ;
#60 = APPROVAL_DATE_TIME ( #196, #51 ) ;
#61 = EDGE_LOOP ( 'NONE', ( #71 ) ) ;
#62 = CARTESIAN_POINT ( 'NONE',  ( 3.491481338843133355E-16, 0.0000000000000000000, 0.1000000000000000056 ) ) ;
#63 = ADVANCED_FACE ( 'NONE', ( #142 ), #123, .T. ) ;
#64 = CARTESIAN_POINT ( 'NONE',  ( 8.728703347107833388E-14, -3.061616997868383831E-15, 25.00000000000000000 ) ) ;
#65 = SECURITY_CLASSIFICATION ( '', '', #163 ) ;
#66 = CIRCLE ( 'NONE', #166, 7.899999999999999467 ) ;
#67 =( LENGTH_UNIT ( ) NAMED_UNIT ( * ) SI_UNIT ( .MILLI., .METRE. ) );
#68 = ORIENTED_EDGE ( 'NONE', *, *, #37, .T. ) ;
#69 = CARTESIAN_POINT ( 'NONE',  ( 2.863014697851369604E-13, -1.004210375300829793E-14, 82.00000000000000000 ) ) ;
#70 = CALENDAR_DATE ( 2021, 12, 11 ) ;
#71 = ORIENTED_EDGE ( 'NONE', *, *, #192, .F. ) ;
#72 = DATE_AND_TIME ( #160, #97 ) ;
#73 = CARTESIAN_POINT ( 'NONE',  ( 2.863014697851369604E-13, 4.799231304517930661E-32, 82.00000000000000000 ) ) ;
#74 = DATE_TIME_ROLE ( 'creation_date' ) ;
#75 = CC_DESIGN_DATE_AND_TIME_ASSIGNMENT ( #173, #86, ( #65 ) ) ;
#76 = VERTEX_POINT ( 'NONE', #180 ) ;
#77 = ADVANCED_FACE ( 'NONE', ( #187, #212 ), #4, .T. ) ;
#78 = CARTESIAN_POINT ( 'NONE',  ( 8.728703347107833388E-14, 7.999999999999996447, 25.00000000000000000 ) ) ;
#79 = ORIENTED_EDGE ( 'NONE', *, *, #192, .T. ) ;
#80 = AXIS2_PLACEMENT_3D ( 'NONE', #193, #175, #121 ) ;
#81 = PERSON_AND_ORGANIZATION ( #198, #15 ) ;
#82 = CARTESIAN_POINT ( 'NONE',  ( 3.491481338843133355E-16, 0.0000000000000000000, 0.1000000000000000056 ) ) ;
#83 = FACE_OUTER_BOUND ( 'NONE', #181, .T. ) ;
#84 = PRODUCT ( '30523', '30523', '', ( #100 ) ) ;
#85 = DIRECTION ( 'NONE',  ( 0.0000000000000000000, 1.000000000000000000, 0.0000000000000000000 ) ) ;
#86 = DATE_TIME_ROLE ( 'classification_date' ) ;
#87 = ADVANCED_FACE ( 'NONE', ( #206, #19 ), #119, .T. ) ;
#88 = CYLINDRICAL_SURFACE ( 'NONE', #31, 7.999999999999998224 ) ;
#89 = FACE_OUTER_BOUND ( 'NONE', #14, .T. ) ;
#90 = CIRCLE ( 'NONE', #168, 6.399999999999999467 ) ;
#91 = DIRECTION ( 'NONE',  ( 4.275831445896959482E-31, 1.000000000000000000, 1.224646799147353454E-16 ) ) ;
#92 = APPROVAL_DATE_TIME ( #194, #114 ) ;
#93 = DIRECTION ( 'NONE',  ( 1.000000000000000000, 0.0000000000000000000, -3.491481338843132961E-15 ) ) ;
#94 = EDGE_LOOP ( 'NONE', ( #79 ) ) ;
#95 = ADVANCED_FACE ( 'NONE', ( #24, #172 ), #88, .T. ) ;
#96 = ORIENTED_EDGE ( 'NONE', *, *, #200, .F. ) ;
#97 = LOCAL_TIME ( 7, 57, 3.000000000000000000, #29 ) ;
#98 = AXIS2_PLACEMENT_3D ( 'NONE', #82, #59, #20 ) ;
#99 =( NAMED_UNIT ( * ) SI_UNIT ( $, .STERADIAN. ) SOLID_ANGLE_UNIT ( ) );
#100 = MECHANICAL_CONTEXT ( 'NONE', #148, 'mechanical' ) ;
#101 = FACE_OUTER_BOUND ( 'NONE', #220, .T. ) ;
#102 = PLANE ( 'NONE',  #27 ) ;
#103 = APPROVAL_STATUS ( 'not_yet_approved' ) ;
#104 = EDGE_CURVE ( 'NONE', #195, #195, #112, .T. ) ;
#105 = AXIS2_PLACEMENT_3D ( 'NONE', #62, #128, #11 ) ;
#106 = ORIENTED_EDGE ( 'NONE', *, *, #130, .T. ) ;
#107 = APPROVAL_DATE_TIME ( #217, #32 ) ;
#108 = DIRECTION ( 'NONE',  ( -3.491481338843133355E-15, 1.224646799147353454E-16, -1.000000000000000000 ) ) ;
#109 = DIRECTION ( 'NONE',  ( 0.0000000000000000000, 1.000000000000000000, 0.0000000000000000000 ) ) ;
#110 = PERSON_AND_ORGANIZATION_ROLE ( 'creator' ) ;
#111 = VERTEX_POINT ( 'NONE', #78 ) ;
#112 = CIRCLE ( 'NONE', #149, 8.000000000000000000 ) ;
#113 = EDGE_LOOP ( 'NONE', ( #41 ) ) ;
#114 = APPROVAL ( #103, 'UNSPECIFIED' ) ;
#115 = EDGE_CURVE ( 'NONE', #177, #177, #58, .T. ) ;
#116 = EDGE_LOOP ( 'NONE', ( #49 ) ) ;
#117 = PRODUCT_DEFINITION ( 'UNKNOWN', '', #3, #38 ) ;
#118 = APPROVAL_PERSON_ORGANIZATION ( #55, #32, #158 ) ;
#119 = CONICAL_SURFACE ( 'NONE', #221, 7.999999999999996447, 0.7853981633974461696 ) ;
#120 = PERSON_AND_ORGANIZATION_ROLE ( 'design_owner' ) ;
#121 = DIRECTION ( 'NONE',  ( -4.275831445896959482E-31, -1.000000000000000000, -1.224646799147353454E-16 ) ) ;
#122 = CALENDAR_DATE ( 2021, 12, 11 ) ;
#123 = PLANE ( 'NONE',  #80 ) ;
#124 = CLOSED_SHELL ( 'NONE', ( #77, #63, #215, #33 ) ) ;
#125 = DIRECTION ( 'NONE',  ( 3.491481338843133355E-15, -1.224646799147353454E-16, 1.000000000000000000 ) ) ;
#126 = CALENDAR_DATE ( 2021, 12, 11 ) ;
#127 = CARTESIAN_POINT ( 'NONE',  ( 2.863014697851369604E-13, 6.399999999999988809, 82.00000000000000000 ) ) ;
#128 = DIRECTION ( 'NONE',  ( 3.491481338843133355E-15, -0.0000000000000000000, 1.000000000000000000 ) ) ;
#129 = CC_DESIGN_PERSON_AND_ORGANIZATION_ASSIGNMENT ( #42, #207, ( #65 ) ) ;
#130 = EDGE_CURVE ( 'NONE', #76, #76, #211, .T. ) ;
#131 = AXIS2_PLACEMENT_3D ( 'NONE', #73, #108, #218 ) ;
#132 = ORIENTED_EDGE ( 'NONE', *, *, #115, .T. ) ;
#133 = ORIENTED_EDGE ( 'NONE', *, *, #104, .T. ) ;
#134 = AXIS2_PLACEMENT_3D ( 'NONE', #18, #170, #53 ) ;
#135 = DIRECTION ( 'NONE',  ( -3.491481338843133355E-15, 1.224646799147353454E-16, -1.000000000000000000 ) ) ;
#136 = APPROVAL_PERSON_ORGANIZATION ( #81, #51, #188 ) ;
#137 = CARTESIAN_POINT ( 'NONE',  ( 2.807150996429879470E-13, -9.846160265144721058E-15, 80.40000000000000568 ) ) ;
#138 = PERSON_AND_ORGANIZATION ( #198, #15 ) ;
#139 = DIRECTION ( 'NONE',  ( 0.0000000000000000000, 1.000000000000000000, 0.0000000000000000000 ) ) ;
#140 = PERSON_AND_ORGANIZATION ( #198, #15 ) ;
#141 = AXIS2_PLACEMENT_3D ( 'NONE', #185, #135, #91 ) ;
#142 = FACE_OUTER_BOUND ( 'NONE', #61, .T. ) ;
#143 = APPROVAL_STATUS ( 'not_yet_approved' ) ;
#144 = FACE_BOUND ( 'NONE', #43, .T. ) ;
#145 = CARTESIAN_POINT ( 'NONE',  ( 7.899999999999999467, 0.0000000000000000000, -2.759625510401681600E-14 ) ) ;
#146 = CC_DESIGN_APPROVAL ( #32, ( #65 ) ) ;
#147 = EDGE_LOOP ( 'NONE', ( #106 ) ) ;
#148 = APPLICATION_CONTEXT ( 'configuration controlled 3d designs of mechanical parts and assemblies' ) ;
#149 = AXIS2_PLACEMENT_3D ( 'NONE', #178, #21, #171 ) ;
#150 = CC_DESIGN_DATE_AND_TIME_ASSIGNMENT ( #72, #74, ( #117 ) ) ;
#151 = ADVANCED_FACE ( 'NONE', ( #83 ), #2, .F. ) ;
#152 = APPROVAL_STATUS ( 'not_yet_approved' ) ;
#153 = DIRECTION ( 'NONE',  ( -3.491481338843133355E-15, 1.224646799147353454E-16, -1.000000000000000000 ) ) ;
#154 = DIRECTION ( 'NONE',  ( -3.491481338843133355E-15, 1.224646799147353454E-16, -1.000000000000000000 ) ) ;
#155 = CC_DESIGN_PERSON_AND_ORGANIZATION_ASSIGNMENT ( #223, #120, ( #84 ) ) ;
#156 = CONICAL_SURFACE ( 'NONE', #105, 8.000000000000000000, 0.7853981633974538301 ) ;
#157 = DIRECTION ( 'NONE',  ( -3.491481338843133355E-15, 1.224646799147353454E-16, -1.000000000000000000 ) ) ;
#158 = APPROVAL_ROLE ( '' ) ;
#159 = CARTESIAN_POINT ( 'NONE',  ( 0.0000000000000000000, 0.0000000000000000000, 0.0000000000000000000 ) ) ;
#160 = CALENDAR_DATE ( 2021, 12, 11 ) ;
#161 = AXIS2_PLACEMENT_3D ( 'NONE', #64, #9, #44 ) ;
#162 = EDGE_LOOP ( 'NONE', ( #201 ) ) ;
#163 = SECURITY_CLASSIFICATION_LEVEL ( 'unclassified' ) ;
#164 = CARTESIAN_POINT ( 'NONE',  ( 8.728703347107833388E-14, 7.999999999999996447, 25.00000000000000000 ) ) ;
#165 = EDGE_LOOP ( 'NONE', ( #132 ) ) ;
#166 = AXIS2_PLACEMENT_3D ( 'NONE', #47, #30, #93 ) ;
#167 = CC_DESIGN_PERSON_AND_ORGANIZATION_ASSIGNMENT ( #176, #213, ( #3 ) ) ;
#168 = AXIS2_PLACEMENT_3D ( 'NONE', #69, #10, #139 ) ;
#169 = ADVANCED_FACE ( 'NONE', ( #189 ), #7, .F. ) ;
#170 = DIRECTION ( 'NONE',  ( 0.0000000000000000000, 0.0000000000000000000, 1.000000000000000000 ) ) ;
#171 = DIRECTION ( 'NONE',  ( 0.0000000000000000000, 1.000000000000000000, 0.0000000000000000000 ) ) ;
#172 = FACE_OUTER_BOUND ( 'NONE', #113, .T. ) ;
#173 = DATE_AND_TIME ( #70, #183 ) ;
#174 = CC_DESIGN_APPROVAL ( #114, ( #3 ) ) ;
#175 = DIRECTION ( 'NONE',  ( 3.491481338843133355E-15, -1.224646799147353454E-16, 1.000000000000000000 ) ) ;
#176 = PERSON_AND_ORGANIZATION ( #198, #15 ) ;
#177 = VERTEX_POINT ( 'NONE', #46 ) ;
#178 = CARTESIAN_POINT ( 'NONE',  ( 8.728703347107833388E-14, -3.061616997868383831E-15, 25.00000000000000000 ) ) ;
#179 = COORDINATED_UNIVERSAL_TIME_OFFSET ( 1, 0, .AHEAD. ) ;
#180 = CARTESIAN_POINT ( 'NONE',  ( 8.000000000000000000, 0.0000000000000000000, 0.09999999999997206956 ) ) ;
#181 = EDGE_LOOP ( 'NONE', ( #133 ) ) ;
#182 = ADVANCED_BREP_SHAPE_REPRESENTATION ( '30523', ( #12, #16, #134 ), #204 ) ;
#183 = LOCAL_TIME ( 7, 57, 3.000000000000000000, #190 ) ;
#184 = CLOSED_SHELL ( 'NONE', ( #151, #95, #87, #169 ) ) ;
#185 = CARTESIAN_POINT ( 'NONE',  ( 0.0000000000000000000, 0.0000000000000000000, 0.0000000000000000000 ) ) ;
#186 = SHAPE_DEFINITION_REPRESENTATION ( #210, #182 ) ;
#187 = FACE_OUTER_BOUND ( 'NONE', #94, .T. ) ;
#188 = APPROVAL_ROLE ( '' ) ;
#189 = FACE_OUTER_BOUND ( 'NONE', #162, .T. ) ;
#190 = COORDINATED_UNIVERSAL_TIME_OFFSET ( 1, 0, .AHEAD. ) ;
#191 = CC_DESIGN_PERSON_AND_ORGANIZATION_ASSIGNMENT ( #140, #110, ( #117 ) ) ;
#192 = EDGE_CURVE ( 'NONE', #111, #111, #36, .T. ) ;
#193 = CARTESIAN_POINT ( 'NONE',  ( 8.728703347107833388E-14, 5.999039130647427147E-32, 25.00000000000000000 ) ) ;
#194 = DATE_AND_TIME ( #126, #219 ) ;
#195 = VERTEX_POINT ( 'NONE', #164 ) ;
#196 = DATE_AND_TIME ( #8, #48 ) ;
#197 = VERTEX_POINT ( 'NONE', #127 ) ;
#198 = PERSON ( 'UNSPECIFIED', 'UNSPECIFIED', 'UNSPECIFIED', ('UNSPECIFIED'), ('UNSPECIFIED'), ('UNSPECIFIED') ) ;
#199 = CC_DESIGN_APPROVAL ( #51, ( #117 ) ) ;
#200 = EDGE_CURVE ( 'NONE', #26, #26, #66, .T. ) ;
#201 = ORIENTED_EDGE ( 'NONE', *, *, #37, .F. ) ;
#202 = AXIS2_PLACEMENT_3D ( 'NONE', #137, #208, #85 ) ;
#203 = ORIENTED_EDGE ( 'NONE', *, *, #200, .T. ) ;
#204 =( GEOMETRIC_REPRESENTATION_CONTEXT ( 3 ) GLOBAL_UNCERTAINTY_ASSIGNED_CONTEXT ( ( #17 ) ) GLOBAL_UNIT_ASSIGNED_CONTEXT ( ( #67, #52, #99 ) ) REPRESENTATION_CONTEXT ( 'NONE', 'WORKASPACE' ) );
#205 = APPLICATION_PROTOCOL_DEFINITION ( 'international standard', 'config_control_design', 1994, #148 ) ;
#206 = FACE_BOUND ( 'NONE', #34, .T. ) ;
#207 = PERSON_AND_ORGANIZATION_ROLE ( 'classification_officer' ) ;
#208 = DIRECTION ( 'NONE',  ( -3.491481338843133355E-15, 1.224646799147353454E-16, -1.000000000000000000 ) ) ;
#209 = APPROVAL_ROLE ( '' ) ;
#210 = PRODUCT_DEFINITION_SHAPE ( 'NONE', 'NONE',  #117 ) ;
#211 = CIRCLE ( 'NONE', #98, 8.000000000000000000 ) ;
#212 = FACE_OUTER_BOUND ( 'NONE', #147, .T. ) ;
#213 = PERSON_AND_ORGANIZATION_ROLE ( 'design_supplier' ) ;
#214 = PRODUCT_RELATED_PRODUCT_CATEGORY ( 'detail', '', ( #84 ) ) ;
#215 = ADVANCED_FACE ( 'NONE', ( #144, #89 ), #156, .T. ) ;
#216 = ORIENTED_EDGE ( 'NONE', *, *, #130, .F. ) ;
#217 = DATE_AND_TIME ( #122, #23 ) ;
#218 = DIRECTION ( 'NONE',  ( 4.275831445896959482E-31, 1.000000000000000000, 1.224646799147353454E-16 ) ) ;
#219 = LOCAL_TIME ( 7, 57, 3.000000000000000000, #57 ) ;
#220 = EDGE_LOOP ( 'NONE', ( #96 ) ) ;
#221 = AXIS2_PLACEMENT_3D ( 'NONE', #45, #153, #109 ) ;
#222 = APPLICATION_CONTEXT ( 'configuration controlled 3d designs of mechanical parts and assemblies' ) ;
#223 = PERSON_AND_ORGANIZATION ( #198, #15 ) ;
ENDSEC;
END-ISO-10303-21;
