ISO-10303-21;
HEADER;
FILE_DESCRIPTION (( 'STEP AP203' ),
    '1' );
FILE_NAME ('303493.step',
    '2021-12-16T09:08:50',
    ( '' ),
    ( '' ),
    'SwSTEP 2.0',
    'SolidWorks 2019',
    '' );
FILE_SCHEMA (( 'CONFIG_CONTROL_DESIGN' ));
ENDSEC;

DATA;
#1 = CARTESIAN_POINT ( 'NONE',  ( 0.0000000000000000000, 0.0000000000000000000, 0.0000000000000000000 ) ) ;
#2 = CONICAL_SURFACE ( 'NONE', #209, 0.7209999999999993081, 0.2617993877991429685 ) ;
#3 = FACE_BOUND ( 'NONE', #53, .T. ) ;
#4 = FACE_OUTER_BOUND ( 'NONE', #192, .T. ) ;
#5 = ADVANCED_FACE ( 'NONE', ( #3, #221 ), #2, .T. ) ;
#6 = PERSON_AND_ORGANIZATION_ROLE ( 'creator' ) ;
#7 = CC_DESIGN_APPROVAL ( #58, ( #175 ) ) ;
#8 = CC_DESIGN_PERSON_AND_ORGANIZATION_ASSIGNMENT ( #86, #165, ( #282 ) ) ;
#9 = EDGE_LOOP ( 'NONE', ( #203 ) ) ;
#10 = CALENDAR_DATE ( 2021, 16, 12 ) ;
#11 = PLANE ( 'NONE',  #172 ) ;
#12 = ORIENTED_EDGE ( 'NONE', *, *, #234, .F. ) ;
#13 = CLOSED_SHELL ( 'NONE', ( #254, #106, #125, #50, #174, #163, #216 ) ) ;
#14 = DIRECTION ( 'NONE',  ( 0.0000000000000000000, 1.000000000000000000, 0.0000000000000000000 ) ) ;
#15 = CARTESIAN_POINT ( 'NONE',  ( 1.745740669421566678E-14, 0.7209999999999991971, 5.000000000000000000 ) ) ;
#16 = DIRECTION ( 'NONE',  ( 0.0000000000000000000, 1.000000000000000000, 0.0000000000000000000 ) ) ;
#17 = SECURITY_CLASSIFICATION ( '', '', #56 ) ;
#18 = CARTESIAN_POINT ( 'NONE',  ( 2.199633243471174014E-14, 0.7209999999999991971, 6.299999999999999822 ) ) ;
#19 = CARTESIAN_POINT ( 'NONE',  ( 0.0000000000000000000, 0.0000000000000000000, 0.0000000000000000000 ) ) ;
#20 = PERSON ( 'UNSPECIFIED', 'UNSPECIFIED', 'UNSPECIFIED', ('UNSPECIFIED'), ('UNSPECIFIED'), ('UNSPECIFIED') ) ;
#21 = EDGE_CURVE ( 'NONE', #160, #160, #259, .T. ) ;
#22 = LOCAL_TIME ( 10, 8, 50.00000000000000000, #69 ) ;
#23 =( NAMED_UNIT ( * ) PLANE_ANGLE_UNIT ( ) SI_UNIT ( $, .RADIAN. ) );
#24 = AXIS2_PLACEMENT_3D ( 'NONE', #108, #75, #14 ) ;
#25 = ORIENTED_EDGE ( 'NONE', *, *, #123, .T. ) ;
#26 = ORIENTED_EDGE ( 'NONE', *, *, #208, .F. ) ;
#27 = AXIS2_PLACEMENT_3D ( 'NONE', #55, #223, #133 ) ;
#28 = DIRECTION ( 'NONE',  ( 0.0000000000000000000, 1.000000000000000000, 0.0000000000000000000 ) ) ;
#29 = CONICAL_SURFACE ( 'NONE', #178, 0.6000000000000000888, 0.7853981633974450594 ) ;
#30 = EDGE_LOOP ( 'NONE', ( #126 ) ) ;
#31 = DATE_AND_TIME ( #104, #235 ) ;
#32 = FACE_OUTER_BOUND ( 'NONE', #96, .T. ) ;
#33 = CARTESIAN_POINT ( 'NONE',  ( 2.260404474073794498E-14, 0.7499999999999963363, 6.474055722213186037 ) ) ;
#34 = APPROVAL_STATUS ( 'not_yet_approved' ) ;
#35 = FACE_BOUND ( 'NONE', #173, .T. ) ;
#36 = DIRECTION ( 'NONE',  ( 5.342385421323821257E-31, 1.000000000000000000, 1.503747812046470730E-16 ) ) ;
#37 = FACE_OUTER_BOUND ( 'NONE', #9, .T. ) ;
#38 = TOROIDAL_SURFACE ( 'NONE', #61, 1.221000000000000085, 0.5000000000000000000 ) ;
#39 = DIRECTION ( 'NONE',  ( -3.491481338843133355E-15, 1.224646799147353207E-16, -1.000000000000000000 ) ) ;
#40 = FACE_OUTER_BOUND ( 'NONE', #131, .T. ) ;
#41 = APPROVAL_PERSON_ORGANIZATION ( #151, #225, #266 ) ;
#42 = AXIS2_PLACEMENT_3D ( 'NONE', #82, #155, #103 ) ;
#43 = VERTEX_POINT ( 'NONE', #141 ) ;
#44 = CARTESIAN_POINT ( 'NONE',  ( 1.042207179644675275E-13, -3.655570695454848748E-15, 29.84999999999999787 ) ) ;
#45 = PRODUCT_RELATED_PRODUCT_CATEGORY ( 'detail', '', ( #282 ) ) ;
#46 = DIRECTION ( 'NONE',  ( 0.0000000000000000000, 1.000000000000000000, 0.0000000000000000000 ) ) ;
#47 = VERTEX_POINT ( 'NONE', #15 ) ;
#48 = PRODUCT_DEFINITION_SHAPE ( 'NONE', 'NONE',  #175 ) ;
#49 = DIRECTION ( 'NONE',  ( 3.491481338843133355E-15, -1.224646799147353207E-16, 1.000000000000000000 ) ) ;
#50 = ADVANCED_FACE ( 'NONE', ( #283, #32 ), #262, .T. ) ;
#51 = DIRECTION ( 'NONE',  ( -3.491481338843133355E-15, 1.224646799147353207E-16, -1.000000000000000000 ) ) ;
#52 = DATE_AND_TIME ( #220, #22 ) ;
#53 = EDGE_LOOP ( 'NONE', ( #177 ) ) ;
#54 = APPROVAL_DATE_TIME ( #168, #225 ) ;
#55 = CARTESIAN_POINT ( 'NONE',  ( 0.0000000000000000000, 0.0000000000000000000, 0.0000000000000000000 ) ) ;
#56 = SECURITY_CLASSIFICATION_LEVEL ( 'unclassified' ) ;
#57 = FACE_OUTER_BOUND ( 'NONE', #113, .T. ) ;
#58 = APPROVAL ( #146, 'UNSPECIFIED' ) ;
#59 = DIRECTION ( 'NONE',  ( -4.275831445896958607E-31, -1.000000000000000000, -1.224646799147353207E-16 ) ) ;
#60 = DIRECTION ( 'NONE',  ( 0.0000000000000000000, 1.000000000000000000, 0.0000000000000000000 ) ) ;
#61 = AXIS2_PLACEMENT_3D ( 'NONE', #176, #181, #200 ) ;
#62 = AXIS2_PLACEMENT_3D ( 'NONE', #195, #196, #46 ) ;
#63 = CC_DESIGN_PERSON_AND_ORGANIZATION_ASSIGNMENT ( #232, #114, ( #229 ) ) ;
#64 = ORIENTED_EDGE ( 'NONE', *, *, #21, .T. ) ;
#65 = PERSON_AND_ORGANIZATION ( #20, #169 ) ;
#66 = DIRECTION ( 'NONE',  ( 4.275831445896958607E-31, 1.000000000000000000, 1.224646799147353207E-16 ) ) ;
#67 = EDGE_LOOP ( 'NONE', ( #147 ) ) ;
#68 = LOCAL_TIME ( 10, 8, 50.00000000000000000, #128 ) ;
#69 = COORDINATED_UNIVERSAL_TIME_OFFSET ( 1, 0, .AHEAD. ) ;
#70 = AXIS2_PLACEMENT_3D ( 'NONE', #1, #166, #66 ) ;
#71 = DATE_TIME_ROLE ( 'classification_date' ) ;
#72 = EDGE_CURVE ( 'NONE', #153, #153, #212, .T. ) ;
#73 = EDGE_LOOP ( 'NONE', ( #271 ) ) ;
#74 = CARTESIAN_POINT ( 'NONE',  ( 1.042207179644675275E-13, 0.7499999999999962252, 29.84999999999999787 ) ) ;
#75 = DIRECTION ( 'NONE',  ( -3.491481338843133355E-15, 1.224646799147353207E-16, -1.000000000000000000 ) ) ;
#76 = AXIS2_PLACEMENT_3D ( 'NONE', #91, #167, #148 ) ;
#77 = PLANE ( 'NONE',  #242 ) ;
#78 = CC_DESIGN_PERSON_AND_ORGANIZATION_ASSIGNMENT ( #158, #255, ( #17 ) ) ;
#79 = DIRECTION ( 'NONE',  ( 3.491481338843133355E-15, -1.224646799147353207E-16, 1.000000000000000000 ) ) ;
#80 = APPROVAL_STATUS ( 'not_yet_approved' ) ;
#81 = CARTESIAN_POINT ( 'NONE',  ( 1.047444401652940007E-13, -3.673940397442059178E-15, 30.00000000000000000 ) ) ;
#82 = CARTESIAN_POINT ( 'NONE',  ( 0.0000000000000000000, 0.0000000000000000000, 0.0000000000000000000 ) ) ;
#83 = APPLICATION_CONTEXT ( 'configuration controlled 3d designs of mechanical parts and assemblies' ) ;
#84 = CARTESIAN_POINT ( 'NONE',  ( 4.731839565957901202E-32, 0.4799999999999998712, 1.355252715606880543E-17 ) ) ;
#85 = AXIS2_PLACEMENT_3D ( 'NONE', #184, #247, #118 ) ;
#86 = PERSON_AND_ORGANIZATION ( #20, #169 ) ;
#87 = ORIENTED_EDGE ( 'NONE', *, *, #230, .T. ) ;
#88 = VERTEX_POINT ( 'NONE', #33 ) ;
#89 = AXIS2_PLACEMENT_3D ( 'NONE', #93, #217, #28 ) ;
#90 = DIRECTION ( 'NONE',  ( 0.0000000000000000000, 1.000000000000000000, 0.0000000000000000000 ) ) ;
#91 = CARTESIAN_POINT ( 'NONE',  ( 1.047444401652940007E-13, -3.673940397442059178E-15, 30.00000000000000000 ) ) ;
#92 = CALENDAR_DATE ( 2021, 16, 12 ) ;
#93 = CARTESIAN_POINT ( 'NONE',  ( 1.745740669421566678E-14, -6.123233995736766282E-16, 5.000000000000000000 ) ) ;
#94 =( GEOMETRIC_REPRESENTATION_CONTEXT ( 3 ) GLOBAL_UNCERTAINTY_ASSIGNED_CONTEXT ( ( #214 ) ) GLOBAL_UNIT_ASSIGNED_CONTEXT ( ( #281, #23, #107 ) ) REPRESENTATION_CONTEXT ( 'NONE', 'WORKASPACE' ) );
#95 = APPROVAL_ROLE ( '' ) ;
#96 = EDGE_LOOP ( 'NONE', ( #115 ) ) ;
#97 = DATE_AND_TIME ( #10, #68 ) ;
#98 = CARTESIAN_POINT ( 'NONE',  ( 1.745740669421566678E-14, 5.406634016495986331E-33, 5.000000000000000000 ) ) ;
#99 = ORIENTED_EDGE ( 'NONE', *, *, #234, .T. ) ;
#100 = EDGE_CURVE ( 'NONE', #88, #88, #134, .T. ) ;
#101 = CYLINDRICAL_SURFACE ( 'NONE', #218, 0.7499999999999984457 ) ;
#102 = CIRCLE ( 'NONE', #204, 0.7380370868554646524 ) ;
#103 = DIRECTION ( 'NONE',  ( 4.275831445896958607E-31, 1.000000000000000000, 1.224646799147353207E-16 ) ) ;
#104 = CALENDAR_DATE ( 2021, 16, 12 ) ;
#105 = DIRECTION ( 'NONE',  ( -3.491481338843133355E-15, 1.224646799147353207E-16, -1.000000000000000000 ) ) ;
#106 = ADVANCED_FACE ( 'NONE', ( #4, #127 ), #191, .T. ) ;
#107 =( NAMED_UNIT ( * ) SI_UNIT ( $, .STERADIAN. ) SOLID_ANGLE_UNIT ( ) );
#108 = CARTESIAN_POINT ( 'NONE',  ( 1.745740669421566678E-14, -6.123233995736766282E-16, 5.000000000000000000 ) ) ;
#109 = APPLICATION_CONTEXT ( 'configuration controlled 3d designs of mechanical parts and assemblies' ) ;
#110 = APPROVAL_PERSON_ORGANIZATION ( #65, #58, #238 ) ;
#111 = EDGE_LOOP ( 'NONE', ( #26 ) ) ;
#112 = DESIGN_CONTEXT ( 'detailed design', #83, 'design' ) ;
#113 = EDGE_LOOP ( 'NONE', ( #130 ) ) ;
#114 = PERSON_AND_ORGANIZATION_ROLE ( 'creator' ) ;
#115 = ORIENTED_EDGE ( 'NONE', *, *, #100, .T. ) ;
#116 = PERSON_AND_ORGANIZATION ( #20, #169 ) ;
#117 = VERTEX_POINT ( 'NONE', #199 ) ;
#118 = DIRECTION ( 'NONE',  ( 4.275831445896958607E-31, 1.000000000000000000, 1.224646799147353207E-16 ) ) ;
#119 = CYLINDRICAL_SURFACE ( 'NONE', #42, 0.7209999999999996412 ) ;
#120 = ADVANCED_BREP_SHAPE_REPRESENTATION ( '303493', ( #186, #185, #27 ), #94 ) ;
#121 = PLANE ( 'NONE',  #201 ) ;
#122 = DIRECTION ( 'NONE',  ( 0.0000000000000000000, 1.000000000000000000, 0.0000000000000000000 ) ) ;
#123 = EDGE_CURVE ( 'NONE', #117, #117, #270, .T. ) ;
#124 = CARTESIAN_POINT ( 'NONE',  ( -1.579215137434749286E-31, 5.539141056573190865E-33, -4.523051920300413545E-17 ) ) ;
#125 = ADVANCED_FACE ( 'NONE', ( #170, #268 ), #38, .F. ) ;
#126 = ORIENTED_EDGE ( 'NONE', *, *, #261, .T. ) ;
#127 = FACE_OUTER_BOUND ( 'NONE', #219, .T. ) ;
#128 = COORDINATED_UNIVERSAL_TIME_OFFSET ( 1, 0, .AHEAD. ) ;
#129 = CIRCLE ( 'NONE', #197, 0.4799999999999998712 ) ;
#130 = ORIENTED_EDGE ( 'NONE', *, *, #261, .F. ) ;
#131 = EDGE_LOOP ( 'NONE', ( #87 ) ) ;
#132 = APPROVAL_PERSON_ORGANIZATION ( #275, #244, #95 ) ;
#133 = DIRECTION ( 'NONE',  ( 1.000000000000000000, 0.0000000000000000000, 0.0000000000000000000 ) ) ;
#134 = CIRCLE ( 'NONE', #62, 0.7499999999999971134 ) ;
#135 = ORIENTED_EDGE ( 'NONE', *, *, #72, .T. ) ;
#136 = DIRECTION ( 'NONE',  ( -4.275831445896958607E-31, -1.000000000000000000, -1.224646799147353207E-16 ) ) ;
#137 = DIRECTION ( 'NONE',  ( -3.491481338843133355E-15, 1.224646799147353207E-16, -1.000000000000000000 ) ) ;
#138 = CARTESIAN_POINT ( 'NONE',  ( -7.896075687173746431E-32, 2.769570528286595433E-33, -2.261525960150206773E-17 ) ) ;
#139 = CLOSED_SHELL ( 'NONE', ( #222, #5, #150, #277 ) ) ;
#140 = FACE_OUTER_BOUND ( 'NONE', #265, .T. ) ;
#141 = CARTESIAN_POINT ( 'NONE',  ( 3.140322965808199806E-15, 0.7209999999999991971, 0.8994242446241208500 ) ) ;
#142 = CIRCLE ( 'NONE', #273, 0.7209999999999999742 ) ;
#143 = EDGE_CURVE ( 'NONE', #47, #47, #154, .T. ) ;
#144 = DIRECTION ( 'NONE',  ( 3.491481338843133355E-15, -1.224646799147353207E-16, 1.000000000000000000 ) ) ;
#145 = CARTESIAN_POINT ( 'NONE',  ( 1.047444401652940007E-13, 0.5999999999999963141, 30.00000000000000000 ) ) ;
#146 = APPROVAL_STATUS ( 'not_yet_approved' ) ;
#147 = ORIENTED_EDGE ( 'NONE', *, *, #208, .T. ) ;
#148 = DIRECTION ( 'NONE',  ( 0.0000000000000000000, 1.000000000000000000, 0.0000000000000000000 ) ) ;
#149 = COORDINATED_UNIVERSAL_TIME_OFFSET ( 1, 0, .AHEAD. ) ;
#150 = ADVANCED_FACE ( 'NONE', ( #57, #256 ), #119, .T. ) ;
#151 = PERSON_AND_ORGANIZATION ( #20, #169 ) ;
#152 = ORIENTED_EDGE ( 'NONE', *, *, #123, .F. ) ;
#153 = VERTEX_POINT ( 'NONE', #145 ) ;
#154 = CIRCLE ( 'NONE', #24, 0.7209999999999998632 ) ;
#155 = DIRECTION ( 'NONE',  ( -3.491481338843133355E-15, 1.224646799147353207E-16, -1.000000000000000000 ) ) ;
#156 = DIRECTION ( 'NONE',  ( -3.491481338843133355E-15, 1.224646799147353207E-16, -1.000000000000000000 ) ) ;
#157 = DIRECTION ( 'NONE',  ( -3.491481338843133355E-15, 1.224646799147353207E-16, -1.000000000000000000 ) ) ;
#158 = PERSON_AND_ORGANIZATION ( #20, #169 ) ;
#159 = AXIS2_PLACEMENT_3D ( 'NONE', #164, #144, #237 ) ;
#160 = VERTEX_POINT ( 'NONE', #74 ) ;
#161 = VERTEX_POINT ( 'NONE', #18 ) ;
#162 = AXIS2_PLACEMENT_3D ( 'NONE', #227, #137, #36 ) ;
#163 = ADVANCED_FACE ( 'NONE', ( #140, #35 ), #29, .T. ) ;
#164 = CARTESIAN_POINT ( 'NONE',  ( 2.260404474073794498E-14, -7.928431617709984555E-16, 6.474055722213186037 ) ) ;
#165 = PERSON_AND_ORGANIZATION_ROLE ( 'design_owner' ) ;
#166 = DIRECTION ( 'NONE',  ( -3.491481338843133355E-15, 1.224646799147353207E-16, -1.000000000000000000 ) ) ;
#167 = DIRECTION ( 'NONE',  ( -3.491481338843133355E-15, 1.224646799147353207E-16, -1.000000000000000000 ) ) ;
#168 = DATE_AND_TIME ( #92, #246 ) ;
#169 = ORGANIZATION ( 'UNSPECIFIED', 'UNSPECIFIED', '' ) ;
#170 = FACE_OUTER_BOUND ( 'NONE', #260, .T. ) ;
#171 = COORDINATED_UNIVERSAL_TIME_OFFSET ( 1, 0, .AHEAD. ) ;
#172 = AXIS2_PLACEMENT_3D ( 'NONE', #98, #248, #59 ) ;
#173 = EDGE_LOOP ( 'NONE', ( #135 ) ) ;
#174 = ADVANCED_FACE ( 'NONE', ( #202, #276 ), #101, .T. ) ;
#175 = PRODUCT_DEFINITION ( 'UNKNOWN', '', #229, #112 ) ;
#176 = CARTESIAN_POINT ( 'NONE',  ( 2.199633243471174014E-14, -8.673617379884035472E-16, 6.299999999999999822 ) ) ;
#177 = ORIENTED_EDGE ( 'NONE', *, *, #230, .F. ) ;
#178 = AXIS2_PLACEMENT_3D ( 'NONE', #81, #183, #16 ) ;
#179 = DIRECTION ( 'NONE',  ( 4.275831445896958607E-31, 1.000000000000000000, 1.224646799147353454E-16 ) ) ;
#180 = ORIENTED_EDGE ( 'NONE', *, *, #143, .T. ) ;
#181 = DIRECTION ( 'NONE',  ( -3.491481338843133355E-15, 1.224646799147353207E-16, -1.000000000000000000 ) ) ;
#182 = DATE_TIME_ROLE ( 'creation_date' ) ;
#183 = DIRECTION ( 'NONE',  ( -3.491481338843133355E-15, 1.224646799147353207E-16, -1.000000000000000000 ) ) ;
#184 = CARTESIAN_POINT ( 'NONE',  ( 1.047444401652940007E-13, 4.499279347985518085E-33, 30.00000000000000000 ) ) ;
#185 = MANIFOLD_SOLID_BREP ( 'Corps-Déplacer/Copier1[2]', #139 ) ;
#186 = MANIFOLD_SOLID_BREP ( 'Corps-Déplacer/Copier1[1]', #13 ) ;
#187 = AXIS2_PLACEMENT_3D ( 'NONE', #44, #51, #90 ) ;
#188 = CC_DESIGN_PERSON_AND_ORGANIZATION_ASSIGNMENT ( #116, #6, ( #175 ) ) ;
#189 = CC_DESIGN_DATE_AND_TIME_ASSIGNMENT ( #269, #71, ( #17 ) ) ;
#190 = EDGE_LOOP ( 'NONE', ( #180 ) ) ;
#191 = CYLINDRICAL_SURFACE ( 'NONE', #70, 0.7209999999999998632 ) ;
#192 = EDGE_LOOP ( 'NONE', ( #152 ) ) ;
#193 = CC_DESIGN_PERSON_AND_ORGANIZATION_ASSIGNMENT ( #272, #243, ( #229 ) ) ;
#194 = COORDINATED_UNIVERSAL_TIME_OFFSET ( 1, 0, .AHEAD. ) ;
#195 = CARTESIAN_POINT ( 'NONE',  ( 2.260404474073794498E-14, -7.928431617709984555E-16, 6.474055722213186037 ) ) ;
#196 = DIRECTION ( 'NONE',  ( -3.491481338843133355E-15, 1.224646799147353207E-16, -1.000000000000000000 ) ) ;
#197 = AXIS2_PLACEMENT_3D ( 'NONE', #124, #39, #252 ) ;
#198 = APPROVAL_DATE_TIME ( #97, #58 ) ;
#199 = CARTESIAN_POINT ( 'NONE',  ( 1.745740669421566678E-14, 0.7209999999999991971, 5.000000000000000000 ) ) ;
#200 = DIRECTION ( 'NONE',  ( 4.275831445896958607E-31, 1.000000000000000000, 1.224646799147353207E-16 ) ) ;
#201 = AXIS2_PLACEMENT_3D ( 'NONE', #205, #79, #210 ) ;
#202 = FACE_OUTER_BOUND ( 'NONE', #73, .T. ) ;
#203 = ORIENTED_EDGE ( 'NONE', *, *, #143, .F. ) ;
#204 = AXIS2_PLACEMENT_3D ( 'NONE', #233, #156, #60 ) ;
#205 = CARTESIAN_POINT ( 'NONE',  ( 1.745740669421566678E-14, 5.406634016495986331E-33, 5.000000000000000000 ) ) ;
#206 = CC_DESIGN_APPROVAL ( #244, ( #229 ) ) ;
#207 = FACE_OUTER_BOUND ( 'NONE', #215, .T. ) ;
#208 = EDGE_CURVE ( 'NONE', #228, #228, #102, .T. ) ;
#209 = AXIS2_PLACEMENT_3D ( 'NONE', #213, #49, #240 ) ;
#210 = DIRECTION ( 'NONE',  ( -4.275831445896958607E-31, -1.000000000000000000, -1.224646799147353207E-16 ) ) ;
#211 = APPLICATION_PROTOCOL_DEFINITION ( 'international standard', 'config_control_design', 1994, #109 ) ;
#212 = CIRCLE ( 'NONE', #76, 0.6000000000000000888 ) ;
#213 = CARTESIAN_POINT ( 'NONE',  ( 3.140322965808199412E-15, -1.101477022254455602E-16, 0.8994242446241207389 ) ) ;
#214 = UNCERTAINTY_MEASURE_WITH_UNIT (LENGTH_MEASURE( 1.000000000000000082E-05 ), #281, 'distance_accuracy_value', 'NONE');
#215 = EDGE_LOOP ( 'NONE', ( #25 ) ) ;
#216 = ADVANCED_FACE ( 'NONE', ( #279 ), #231, .F. ) ;
#217 = DIRECTION ( 'NONE',  ( -3.491481338843133355E-15, 1.224646799147353207E-16, -1.000000000000000000 ) ) ;
#218 = AXIS2_PLACEMENT_3D ( 'NONE', #19, #105, #179 ) ;
#219 = EDGE_LOOP ( 'NONE', ( #99 ) ) ;
#220 = CALENDAR_DATE ( 2021, 16, 12 ) ;
#221 = FACE_OUTER_BOUND ( 'NONE', #30, .T. ) ;
#222 = ADVANCED_FACE ( 'NONE', ( #40 ), #77, .F. ) ;
#223 = DIRECTION ( 'NONE',  ( 0.0000000000000000000, 0.0000000000000000000, 1.000000000000000000 ) ) ;
#224 = SHAPE_DEFINITION_REPRESENTATION ( #48, #120 ) ;
#225 = APPROVAL ( #34, 'UNSPECIFIED' ) ;
#226 = ORIENTED_EDGE ( 'NONE', *, *, #21, .F. ) ;
#227 = CARTESIAN_POINT ( 'NONE',  ( 3.140322965808199412E-15, -1.101477022254455602E-16, 0.8994242446241207389 ) ) ;
#228 = VERTEX_POINT ( 'NONE', #280 ) ;
#229 = PRODUCT_DEFINITION_FORMATION_WITH_SPECIFIED_SOURCE ( 'ANY', '', #282, .NOT_KNOWN. ) ;
#230 = EDGE_CURVE ( 'NONE', #258, #258, #129, .T. ) ;
#231 = PLANE ( 'NONE',  #85 ) ;
#232 = PERSON_AND_ORGANIZATION ( #20, #169 ) ;
#233 = CARTESIAN_POINT ( 'NONE',  ( 2.244816336776805305E-14, -7.873755792199909958E-16, 6.429409522551257083 ) ) ;
#234 = EDGE_CURVE ( 'NONE', #161, #161, #142, .T. ) ;
#235 = LOCAL_TIME ( 10, 8, 50.00000000000000000, #171 ) ;
#236 = MECHANICAL_CONTEXT ( 'NONE', #109, 'mechanical' ) ;
#237 = DIRECTION ( 'NONE',  ( 0.0000000000000000000, -1.000000000000000000, 0.0000000000000000000 ) ) ;
#238 = APPROVAL_ROLE ( '' ) ;
#239 = ORIENTED_EDGE ( 'NONE', *, *, #72, .F. ) ;
#240 = DIRECTION ( 'NONE',  ( -5.342385421323821257E-31, -1.000000000000000000, -1.503747812046470730E-16 ) ) ;
#241 = CALENDAR_DATE ( 2021, 16, 12 ) ;
#242 = AXIS2_PLACEMENT_3D ( 'NONE', #138, #274, #136 ) ;
#243 = PERSON_AND_ORGANIZATION_ROLE ( 'design_supplier' ) ;
#244 = APPROVAL ( #80, 'UNSPECIFIED' ) ;
#245 = CC_DESIGN_DATE_AND_TIME_ASSIGNMENT ( #52, #182, ( #175 ) ) ;
#246 = LOCAL_TIME ( 10, 8, 50.00000000000000000, #194 ) ;
#247 = DIRECTION ( 'NONE',  ( -3.491481338843133355E-15, 1.224646799147353207E-16, -1.000000000000000000 ) ) ;
#248 = DIRECTION ( 'NONE',  ( 3.491481338843133355E-15, -1.224646799147353207E-16, 1.000000000000000000 ) ) ;
#249 = EDGE_LOOP ( 'NONE', ( #239 ) ) ;
#250 = CARTESIAN_POINT ( 'NONE',  ( 2.199633243471174014E-14, -7.715274834628325378E-16, 6.299999999999999822 ) ) ;
#251 = CC_DESIGN_APPROVAL ( #225, ( #17 ) ) ;
#252 = DIRECTION ( 'NONE',  ( 4.275831445896957731E-31, 1.000000000000000000, 1.224646799147353207E-16 ) ) ;
#253 = CIRCLE ( 'NONE', #162, 0.7209999999999993081 ) ;
#254 = ADVANCED_FACE ( 'NONE', ( #207 ), #11, .F. ) ;
#255 = PERSON_AND_ORGANIZATION_ROLE ( 'classification_officer' ) ;
#256 = FACE_OUTER_BOUND ( 'NONE', #190, .T. ) ;
#257 = LOCAL_TIME ( 10, 8, 50.00000000000000000, #149 ) ;
#258 = VERTEX_POINT ( 'NONE', #84 ) ;
#259 = CIRCLE ( 'NONE', #187, 0.7499999999999998890 ) ;
#260 = EDGE_LOOP ( 'NONE', ( #12 ) ) ;
#261 = EDGE_CURVE ( 'NONE', #43, #43, #253, .T. ) ;
#262 = CONICAL_SURFACE ( 'NONE', #159, 0.7499999999999971134, 0.2617993877991468543 ) ;
#263 = APPLICATION_PROTOCOL_DEFINITION ( 'international standard', 'config_control_design', 1994, #83 ) ;
#264 = EDGE_LOOP ( 'NONE', ( #64 ) ) ;
#265 = EDGE_LOOP ( 'NONE', ( #226 ) ) ;
#266 = APPROVAL_ROLE ( '' ) ;
#267 = CC_DESIGN_SECURITY_CLASSIFICATION ( #17, ( #229 ) ) ;
#268 = FACE_OUTER_BOUND ( 'NONE', #67, .T. ) ;
#269 = DATE_AND_TIME ( #241, #257 ) ;
#270 = CIRCLE ( 'NONE', #89, 0.7209999999999998632 ) ;
#271 = ORIENTED_EDGE ( 'NONE', *, *, #100, .F. ) ;
#272 = PERSON_AND_ORGANIZATION ( #20, #169 ) ;
#273 = AXIS2_PLACEMENT_3D ( 'NONE', #250, #157, #122 ) ;
#274 = DIRECTION ( 'NONE',  ( 3.491481338843133355E-15, -1.224646799147353207E-16, 1.000000000000000000 ) ) ;
#275 = PERSON_AND_ORGANIZATION ( #20, #169 ) ;
#276 = FACE_OUTER_BOUND ( 'NONE', #264, .T. ) ;
#277 = ADVANCED_FACE ( 'NONE', ( #37 ), #121, .T. ) ;
#278 = APPROVAL_DATE_TIME ( #31, #244 ) ;
#279 = FACE_OUTER_BOUND ( 'NONE', #249, .T. ) ;
#280 = CARTESIAN_POINT ( 'NONE',  ( 2.244816336776805305E-14, 0.7380370868554638752, 6.429409522551257083 ) ) ;
#281 =( LENGTH_UNIT ( ) NAMED_UNIT ( * ) SI_UNIT ( .MILLI., .METRE. ) );
#282 = PRODUCT ( '303493', '303493', '', ( #236 ) ) ;
#283 = FACE_BOUND ( 'NONE', #111, .T. ) ;
ENDSEC;
END-ISO-10303-21;
