ISO-10303-21;
HEADER;
FILE_DESCRIPTION (( 'STEP AP203' ),
    '1' );
FILE_NAME ('303492.step',
    '2021-12-16T09:08:50',
    ( '' ),
    ( '' ),
    'SwSTEP 2.0',
    'SolidWorks 2019',
    '' );
FILE_SCHEMA (( 'CONFIG_CONTROL_DESIGN' ));
ENDSEC;

DATA;
#1 = DIRECTION ( 'NONE',  ( 4.275831445896958607E-31, 1.000000000000000000, 1.224646799147353454E-16 ) ) ;
#2 = EDGE_LOOP ( 'NONE', ( #199 ) ) ;
#3 = EDGE_CURVE ( 'NONE', #80, #80, #32, .T. ) ;
#4 = PLANE ( 'NONE',  #166 ) ;
#5 = COORDINATED_UNIVERSAL_TIME_OFFSET ( 1, 0, .AHEAD. ) ;
#6 = DIRECTION ( 'NONE',  ( 0.0000000000000000000, 1.000000000000000000, 0.0000000000000000000 ) ) ;
#7 = CIRCLE ( 'NONE', #239, 0.6000000000000000888 ) ;
#8 = VERTEX_POINT ( 'NONE', #182 ) ;
#9 = FACE_OUTER_BOUND ( 'NONE', #2, .T. ) ;
#10 = DIRECTION ( 'NONE',  ( 0.0000000000000000000, 1.000000000000000000, 0.0000000000000000000 ) ) ;
#11 = COORDINATED_UNIVERSAL_TIME_OFFSET ( 1, 0, .AHEAD. ) ;
#12 = DIRECTION ( 'NONE',  ( 3.491481338843133355E-15, -1.224646799147353207E-16, 1.000000000000000000 ) ) ;
#13 = CLOSED_SHELL ( 'NONE', ( #256, #200, #192, #210, #225, #48, #279 ) ) ;
#14 = PERSON_AND_ORGANIZATION ( #61, #240 ) ;
#15 = APPROVAL_DATE_TIME ( #124, #230 ) ;
#16 = DIRECTION ( 'NONE',  ( -4.275831445896958607E-31, -1.000000000000000000, -1.224646799147353207E-16 ) ) ;
#17 = AXIS2_PLACEMENT_3D ( 'NONE', #190, #79, #6 ) ;
#18 = DIRECTION ( 'NONE',  ( 4.275831445896958607E-31, 1.000000000000000000, 1.224646799147352961E-16 ) ) ;
#19 = CC_DESIGN_PERSON_AND_ORGANIZATION_ASSIGNMENT ( #67, #152, ( #265 ) ) ;
#20 = EDGE_LOOP ( 'NONE', ( #90 ) ) ;
#21 = EDGE_LOOP ( 'NONE', ( #60 ) ) ;
#22 = ADVANCED_FACE ( 'NONE', ( #141, #213 ), #65, .T. ) ;
#23 = DESIGN_CONTEXT ( 'detailed design', #159, 'design' ) ;
#24 = DIRECTION ( 'NONE',  ( 6.232782991544458571E-31, 1.000000000000000000, 1.754372447387549309E-16 ) ) ;
#25 = EDGE_LOOP ( 'NONE', ( #223 ) ) ;
#26 = APPROVAL_PERSON_ORGANIZATION ( #145, #281, #212 ) ;
#27 = EDGE_LOOP ( 'NONE', ( #283 ) ) ;
#28 = CARTESIAN_POINT ( 'NONE',  ( 1.745740669421566678E-14, 0.6179999999999993276, 5.000000000000000000 ) ) ;
#29 = DIRECTION ( 'NONE',  ( 4.275831445896958607E-31, 1.000000000000000000, 1.224646799147353207E-16 ) ) ;
#30 = DIRECTION ( 'NONE',  ( 4.275831445896958607E-31, 1.000000000000000000, 1.224646799147353207E-16 ) ) ;
#31 = ORIENTED_EDGE ( 'NONE', *, *, #228, .F. ) ;
#32 = CIRCLE ( 'NONE', #17, 0.6180000000000001048 ) ;
#33 = AXIS2_PLACEMENT_3D ( 'NONE', #160, #144, #55 ) ;
#34 = CARTESIAN_POINT ( 'NONE',  ( 2.359702633912850181E-14, 0.7499999999999963363, 6.758456955392789567 ) ) ;
#35 = EDGE_LOOP ( 'NONE', ( #134 ) ) ;
#36 = APPROVAL_STATUS ( 'not_yet_approved' ) ;
#37 = FACE_OUTER_BOUND ( 'NONE', #27, .T. ) ;
#38 = APPROVAL_DATE_TIME ( #274, #281 ) ;
#39 = DIRECTION ( 'NONE',  ( 0.0000000000000000000, -1.000000000000000000, 0.0000000000000000000 ) ) ;
#40 = AXIS2_PLACEMENT_3D ( 'NONE', #156, #177, #242 ) ;
#41 = SHAPE_DEFINITION_REPRESENTATION ( #125, #151 ) ;
#42 = FACE_OUTER_BOUND ( 'NONE', #267, .T. ) ;
#43 = PRODUCT_DEFINITION ( 'UNKNOWN', '', #265, #23 ) ;
#44 = AXIS2_PLACEMENT_3D ( 'NONE', #233, #126, #109 ) ;
#45 = CC_DESIGN_APPROVAL ( #230, ( #247 ) ) ;
#46 = APPROVAL_ROLE ( '' ) ;
#47 = EDGE_CURVE ( 'NONE', #102, #102, #7, .T. ) ;
#48 = ADVANCED_FACE ( 'NONE', ( #37, #275 ), #193, .T. ) ;
#49 = AXIS2_PLACEMENT_3D ( 'NONE', #234, #211, #103 ) ;
#50 = CARTESIAN_POINT ( 'NONE',  ( -1.301286093451447126E-31, 4.564297197842983831E-33, -3.727031500854634491E-17 ) ) ;
#51 = CC_DESIGN_SECURITY_CLASSIFICATION ( #247, ( #265 ) ) ;
#52 = VERTEX_POINT ( 'NONE', #180 ) ;
#53 = DIRECTION ( 'NONE',  ( -3.491481338843133355E-15, 1.224646799147353207E-16, -1.000000000000000000 ) ) ;
#54 = APPROVAL_STATUS ( 'not_yet_approved' ) ;
#55 = DIRECTION ( 'NONE',  ( -4.275831445896958607E-31, -1.000000000000000000, -1.224646799147353207E-16 ) ) ;
#56 = DIRECTION ( 'NONE',  ( 3.491481338843133355E-15, -1.224646799147353207E-16, 1.000000000000000000 ) ) ;
#57 = ADVANCED_FACE ( 'NONE', ( #122, #9 ), #165, .T. ) ;
#58 = PLANE ( 'NONE',  #33 ) ;
#59 = APPLICATION_PROTOCOL_DEFINITION ( 'international standard', 'config_control_design', 1994, #159 ) ;
#60 = ORIENTED_EDGE ( 'NONE', *, *, #99, .T. ) ;
#61 = PERSON ( 'UNSPECIFIED', 'UNSPECIFIED', 'UNSPECIFIED', ('UNSPECIFIED'), ('UNSPECIFIED'), ('UNSPECIFIED') ) ;
#62 = PERSON_AND_ORGANIZATION_ROLE ( 'design_owner' ) ;
#63 = DIRECTION ( 'NONE',  ( 3.491481338843133355E-15, -1.224646799147353207E-16, 1.000000000000000000 ) ) ;
#64 = CARTESIAN_POINT ( 'NONE',  ( 1.745740669421566678E-14, 4.634257728425130456E-33, 5.000000000000000000 ) ) ;
#65 = CONICAL_SURFACE ( 'NONE', #227, 0.6179999999999994387, 0.2617993877991430796 ) ;
#66 = CC_DESIGN_DATE_AND_TIME_ASSIGNMENT ( #76, #161, ( #43 ) ) ;
#67 = PERSON_AND_ORGANIZATION ( #61, #240 ) ;
#68 = CC_DESIGN_PERSON_AND_ORGANIZATION_ASSIGNMENT ( #216, #129, ( #247 ) ) ;
#69 = CC_DESIGN_APPROVAL ( #281, ( #43 ) ) ;
#70 = ORIENTED_EDGE ( 'NONE', *, *, #47, .F. ) ;
#71 = EDGE_LOOP ( 'NONE', ( #31 ) ) ;
#72 = EDGE_LOOP ( 'NONE', ( #70 ) ) ;
#73 = PERSON_AND_ORGANIZATION_ROLE ( 'creator' ) ;
#74 = DIRECTION ( 'NONE',  ( 0.0000000000000000000, 1.000000000000000000, 0.0000000000000000000 ) ) ;
#75 = AXIS2_PLACEMENT_3D ( 'NONE', #198, #176, #93 ) ;
#76 = DATE_AND_TIME ( #96, #137 ) ;
#77 = EDGE_LOOP ( 'NONE', ( #245 ) ) ;
#78 = VERTEX_POINT ( 'NONE', #208 ) ;
#79 = DIRECTION ( 'NONE',  ( -3.491481338843133355E-15, 1.224646799147353207E-16, -1.000000000000000000 ) ) ;
#80 = VERTEX_POINT ( 'NONE', #248 ) ;
#81 = DIRECTION ( 'NONE',  ( -3.491481338843133355E-15, 1.224646799147353207E-16, -1.000000000000000000 ) ) ;
#82 = AXIS2_PLACEMENT_3D ( 'NONE', #222, #201, #24 ) ;
#83 = PLANE ( 'NONE',  #158 ) ;
#84 = ORIENTED_EDGE ( 'NONE', *, *, #3, .T. ) ;
#85 = APPROVAL_ROLE ( '' ) ;
#86 = AXIS2_PLACEMENT_3D ( 'NONE', #115, #81, #74 ) ;
#87 = PERSON_AND_ORGANIZATION ( #61, #240 ) ;
#88 = CARTESIAN_POINT ( 'NONE',  ( 2.359702633912850181E-14, -8.276722677596945710E-16, 6.758456955392789567 ) ) ;
#89 = AXIS2_PLACEMENT_3D ( 'NONE', #95, #257, #209 ) ;
#90 = ORIENTED_EDGE ( 'NONE', *, *, #250, .T. ) ;
#91 = AXIS2_PLACEMENT_3D ( 'NONE', #88, #63, #39 ) ;
#92 = AXIS2_PLACEMENT_3D ( 'NONE', #64, #56, #16 ) ;
#93 = DIRECTION ( 'NONE',  ( 0.0000000000000000000, 1.000000000000000000, 0.0000000000000000000 ) ) ;
#94 = ORIENTED_EDGE ( 'NONE', *, *, #3, .F. ) ;
#95 = CARTESIAN_POINT ( 'NONE',  ( 1.047444401652940007E-13, -3.673940397442059178E-15, 30.00000000000000000 ) ) ;
#96 = CALENDAR_DATE ( 2021, 16, 12 ) ;
#97 = CIRCLE ( 'NONE', #49, 0.7499999999999972244 ) ;
#98 = ORIENTED_EDGE ( 'NONE', *, *, #47, .T. ) ;
#99 = EDGE_CURVE ( 'NONE', #163, #163, #171, .T. ) ;
#100 =( LENGTH_UNIT ( ) NAMED_UNIT ( * ) SI_UNIT ( .MILLI., .METRE. ) );
#101 = EDGE_LOOP ( 'NONE', ( #94 ) ) ;
#102 = VERTEX_POINT ( 'NONE', #184 ) ;
#103 = DIRECTION ( 'NONE',  ( 0.0000000000000000000, 1.000000000000000000, 0.0000000000000000000 ) ) ;
#104 = CALENDAR_DATE ( 2021, 16, 12 ) ;
#105 = EDGE_CURVE ( 'NONE', #78, #78, #203, .T. ) ;
#106 = ORIENTED_EDGE ( 'NONE', *, *, #174, .F. ) ;
#107 = CARTESIAN_POINT ( 'NONE',  ( 0.0000000000000000000, 0.0000000000000000000, 0.0000000000000000000 ) ) ;
#108 = PERSON_AND_ORGANIZATION ( #61, #240 ) ;
#109 = DIRECTION ( 'NONE',  ( 4.275831445896958607E-31, 1.000000000000000000, 1.224646799147353207E-16 ) ) ;
#110 = CIRCLE ( 'NONE', #82, 0.6179999999999994387 ) ;
#111 = DATE_AND_TIME ( #262, #112 ) ;
#112 = LOCAL_TIME ( 10, 8, 50.00000000000000000, #241 ) ;
#113 = LOCAL_TIME ( 10, 8, 50.00000000000000000, #11 ) ;
#114 = ORIENTED_EDGE ( 'NONE', *, *, #105, .F. ) ;
#115 = CARTESIAN_POINT ( 'NONE',  ( 1.745740669421566678E-14, -6.123233995736766282E-16, 5.000000000000000000 ) ) ;
#116 = DIRECTION ( 'NONE',  ( 1.000000000000000000, 0.0000000000000000000, 0.0000000000000000000 ) ) ;
#117 = DIRECTION ( 'NONE',  ( -4.275831445896958607E-31, -1.000000000000000000, -1.224646799147353207E-16 ) ) ;
#118 = DIRECTION ( 'NONE',  ( -3.491481338843133355E-15, 1.224646799147353207E-16, -1.000000000000000000 ) ) ;
#119 = FACE_OUTER_BOUND ( 'NONE', #21, .T. ) ;
#120 = DIRECTION ( 'NONE',  ( 4.275831445896957731E-31, 1.000000000000000000, 1.224646799147353207E-16 ) ) ;
#121 = ADVANCED_FACE ( 'NONE', ( #206 ), #4, .T. ) ;
#122 = FACE_OUTER_BOUND ( 'NONE', #77, .T. ) ;
#123 =( NAMED_UNIT ( * ) PLANE_ANGLE_UNIT ( ) SI_UNIT ( $, .RADIAN. ) );
#124 = DATE_AND_TIME ( #221, #128 ) ;
#125 = PRODUCT_DEFINITION_SHAPE ( 'NONE', 'NONE',  #43 ) ;
#126 = DIRECTION ( 'NONE',  ( -3.491481338843133355E-15, 1.224646799147353207E-16, -1.000000000000000000 ) ) ;
#127 = ADVANCED_FACE ( 'NONE', ( #119 ), #58, .F. ) ;
#128 = LOCAL_TIME ( 10, 8, 50.00000000000000000, #280 ) ;
#129 = PERSON_AND_ORGANIZATION_ROLE ( 'classification_officer' ) ;
#130 = EDGE_LOOP ( 'NONE', ( #273 ) ) ;
#131 = CIRCLE ( 'NONE', #246, 0.6179999999999999938 ) ;
#132 =( GEOMETRIC_REPRESENTATION_CONTEXT ( 3 ) GLOBAL_UNCERTAINTY_ASSIGNED_CONTEXT ( ( #154 ) ) GLOBAL_UNIT_ASSIGNED_CONTEXT ( ( #100, #123, #272 ) ) REPRESENTATION_CONTEXT ( 'NONE', 'WORKASPACE' ) );
#133 = DIRECTION ( 'NONE',  ( -3.491481338843133355E-15, 1.224646799147353207E-16, -1.000000000000000000 ) ) ;
#134 = ORIENTED_EDGE ( 'NONE', *, *, #139, .F. ) ;
#135 = CC_DESIGN_DATE_AND_TIME_ASSIGNMENT ( #196, #195, ( #247 ) ) ;
#136 = AXIS2_PLACEMENT_3D ( 'NONE', #50, #138, #29 ) ;
#137 = LOCAL_TIME ( 10, 8, 50.00000000000000000, #5 ) ;
#138 = DIRECTION ( 'NONE',  ( -3.491481338843133355E-15, 1.224646799147353207E-16, -1.000000000000000000 ) ) ;
#139 = EDGE_CURVE ( 'NONE', #232, #232, #97, .T. ) ;
#140 = CARTESIAN_POINT ( 'NONE',  ( 0.0000000000000000000, 0.0000000000000000000, 0.0000000000000000000 ) ) ;
#141 = FACE_BOUND ( 'NONE', #130, .T. ) ;
#142 = FACE_OUTER_BOUND ( 'NONE', #185, .T. ) ;
#143 = CC_DESIGN_APPROVAL ( #194, ( #265 ) ) ;
#144 = DIRECTION ( 'NONE',  ( 3.491481338843133355E-15, -1.224646799147353207E-16, 1.000000000000000000 ) ) ;
#145 = PERSON_AND_ORGANIZATION ( #61, #240 ) ;
#146 = DIRECTION ( 'NONE',  ( -6.232782991544458571E-31, -1.000000000000000000, -1.754372447387549309E-16 ) ) ;
#147 = VERTEX_POINT ( 'NONE', #235 ) ;
#148 = CC_DESIGN_PERSON_AND_ORGANIZATION_ASSIGNMENT ( #87, #217, ( #265 ) ) ;
#149 = APPROVAL_DATE_TIME ( #111, #194 ) ;
#150 = AXIS2_PLACEMENT_3D ( 'NONE', #170, #183, #120 ) ;
#151 = ADVANCED_BREP_SHAPE_REPRESENTATION ( '303492', ( #169, #263, #219 ), #132 ) ;
#152 = PERSON_AND_ORGANIZATION_ROLE ( 'design_supplier' ) ;
#153 = CARTESIAN_POINT ( 'NONE',  ( 0.0000000000000000000, 0.0000000000000000000, 0.0000000000000000000 ) ) ;
#154 = UNCERTAINTY_MEASURE_WITH_UNIT (LENGTH_MEASURE( 1.000000000000000082E-05 ), #100, 'distance_accuracy_value', 'NONE');
#155 = TOROIDAL_SURFACE ( 'NONE', #44, 1.118000000000000327, 0.5000000000000002220 ) ;
#156 = CARTESIAN_POINT ( 'NONE',  ( 2.209901523388373656E-14, -7.751291112285172443E-16, 6.329409522551255662 ) ) ;
#157 = CARTESIAN_POINT ( 'NONE',  ( 4.731839565957903391E-32, 0.4149999999999999245, 1.355252715606880543E-17 ) ) ;
#158 = AXIS2_PLACEMENT_3D ( 'NONE', #252, #118, #30 ) ;
#159 = APPLICATION_CONTEXT ( 'configuration controlled 3d designs of mechanical parts and assemblies' ) ;
#160 = CARTESIAN_POINT ( 'NONE',  ( -6.506430467257235629E-32, 2.282148598921491915E-33, -1.863515750427317245E-17 ) ) ;
#161 = DATE_TIME_ROLE ( 'creation_date' ) ;
#162 = EDGE_LOOP ( 'NONE', ( #266 ) ) ;
#163 = VERTEX_POINT ( 'NONE', #157 ) ;
#164 = CC_DESIGN_PERSON_AND_ORGANIZATION_ASSIGNMENT ( #255, #62, ( #264 ) ) ;
#165 = CYLINDRICAL_SURFACE ( 'NONE', #150, 0.6179999999999996607 ) ;
#166 = AXIS2_PLACEMENT_3D ( 'NONE', #269, #253, #117 ) ;
#167 = APPROVAL_PERSON_ORGANIZATION ( #251, #194, #85 ) ;
#168 = CARTESIAN_POINT ( 'NONE',  ( 2.645168307299020188E-15, -9.278001473761587549E-17, 0.7576063139364993537 ) ) ;
#169 = MANIFOLD_SOLID_BREP ( 'Corps-Déplacer/Copier1[1]', #13 ) ;
#170 = CARTESIAN_POINT ( 'NONE',  ( 0.0000000000000000000, 0.0000000000000000000, 0.0000000000000000000 ) ) ;
#171 = CIRCLE ( 'NONE', #136, 0.4149999999999999245 ) ;
#172 = APPLICATION_CONTEXT ( 'configuration controlled 3d designs of mechanical parts and assemblies' ) ;
#173 = COORDINATED_UNIVERSAL_TIME_OFFSET ( 1, 0, .AHEAD. ) ;
#174 = EDGE_CURVE ( 'NONE', #268, #268, #131, .T. ) ;
#175 = CALENDAR_DATE ( 2021, 16, 12 ) ;
#176 = DIRECTION ( 'NONE',  ( -3.491481338843133355E-15, 1.224646799147353207E-16, -1.000000000000000000 ) ) ;
#177 = DIRECTION ( 'NONE',  ( -3.491481338843133355E-15, 1.224646799147353207E-16, -1.000000000000000000 ) ) ;
#178 = EDGE_LOOP ( 'NONE', ( #243 ) ) ;
#179 = AXIS2_PLACEMENT_3D ( 'NONE', #107, #260, #18 ) ;
#180 = CARTESIAN_POINT ( 'NONE',  ( 2.645168307299020582E-15, 0.6179999999999993276, 0.7576063139364994647 ) ) ;
#181 = ORIENTED_EDGE ( 'NONE', *, *, #105, .T. ) ;
#182 = CARTESIAN_POINT ( 'NONE',  ( 2.209901523388373656E-14, 0.6350370868554640058, 6.329409522551255662 ) ) ;
#183 = DIRECTION ( 'NONE',  ( -3.491481338843133355E-15, 1.224646799147353207E-16, -1.000000000000000000 ) ) ;
#184 = CARTESIAN_POINT ( 'NONE',  ( 1.047444401652940007E-13, 0.5999999999999963141, 30.00000000000000000 ) ) ;
#185 = EDGE_LOOP ( 'NONE', ( #114 ) ) ;
#186 = APPLICATION_PROTOCOL_DEFINITION ( 'international standard', 'config_control_design', 1994, #172 ) ;
#187 = DIRECTION ( 'NONE',  ( 0.0000000000000000000, 1.000000000000000000, 0.0000000000000000000 ) ) ;
#188 = CLOSED_SHELL ( 'NONE', ( #127, #22, #57, #121 ) ) ;
#189 = CIRCLE ( 'NONE', #75, 0.7499999999999998890 ) ;
#190 = CARTESIAN_POINT ( 'NONE',  ( 2.164718430082742680E-14, -7.592810154713589835E-16, 6.200000000000000178 ) ) ;
#191 = FACE_OUTER_BOUND ( 'NONE', #35, .T. ) ;
#192 = ADVANCED_FACE ( 'NONE', ( #231, #207 ), #155, .F. ) ;
#193 = CONICAL_SURFACE ( 'NONE', #89, 0.6000000000000000888, 0.7853981633974450594 ) ;
#194 = APPROVAL ( #54, 'UNSPECIFIED' ) ;
#195 = DATE_TIME_ROLE ( 'classification_date' ) ;
#196 = DATE_AND_TIME ( #175, #244 ) ;
#197 = FACE_OUTER_BOUND ( 'NONE', #72, .T. ) ;
#198 = CARTESIAN_POINT ( 'NONE',  ( 1.042207179644675275E-13, -3.655570695454848748E-15, 29.84999999999999787 ) ) ;
#199 = ORIENTED_EDGE ( 'NONE', *, *, #174, .T. ) ;
#200 = ADVANCED_FACE ( 'NONE', ( #142, #42 ), #282, .T. ) ;
#201 = DIRECTION ( 'NONE',  ( -3.491481338843133355E-15, 1.224646799147353207E-16, -1.000000000000000000 ) ) ;
#202 = EDGE_LOOP ( 'NONE', ( #98 ) ) ;
#203 = CIRCLE ( 'NONE', #86, 0.6179999999999999938 ) ;
#204 = AXIS2_PLACEMENT_3D ( 'NONE', #153, #133, #1 ) ;
#205 = EDGE_LOOP ( 'NONE', ( #181 ) ) ;
#206 = FACE_OUTER_BOUND ( 'NONE', #236, .T. ) ;
#207 = FACE_OUTER_BOUND ( 'NONE', #178, .T. ) ;
#208 = CARTESIAN_POINT ( 'NONE',  ( 1.745740669421566678E-14, 0.6179999999999993276, 5.000000000000000000 ) ) ;
#209 = DIRECTION ( 'NONE',  ( 0.0000000000000000000, 1.000000000000000000, 0.0000000000000000000 ) ) ;
#210 = ADVANCED_FACE ( 'NONE', ( #215, #278 ), #218, .T. ) ;
#211 = DIRECTION ( 'NONE',  ( -3.491481338843133355E-15, 1.224646799147353207E-16, -1.000000000000000000 ) ) ;
#212 = APPROVAL_ROLE ( '' ) ;
#213 = FACE_OUTER_BOUND ( 'NONE', #162, .T. ) ;
#214 = APPROVAL_PERSON_ORGANIZATION ( #108, #230, #46 ) ;
#215 = FACE_BOUND ( 'NONE', #71, .T. ) ;
#216 = PERSON_AND_ORGANIZATION ( #61, #240 ) ;
#217 = PERSON_AND_ORGANIZATION_ROLE ( 'creator' ) ;
#218 = CONICAL_SURFACE ( 'NONE', #91, 0.7499999999999972244, 0.2617993877991433016 ) ;
#219 = AXIS2_PLACEMENT_3D ( 'NONE', #140, #270, #116 ) ;
#220 = SECURITY_CLASSIFICATION_LEVEL ( 'unclassified' ) ;
#221 = CALENDAR_DATE ( 2021, 16, 12 ) ;
#222 = CARTESIAN_POINT ( 'NONE',  ( 2.645168307299020188E-15, -9.278001473761587549E-17, 0.7576063139364993537 ) ) ;
#223 = ORIENTED_EDGE ( 'NONE', *, *, #139, .T. ) ;
#224 = CYLINDRICAL_SURFACE ( 'NONE', #204, 0.7499999999999984457 ) ;
#225 = ADVANCED_FACE ( 'NONE', ( #191, #277 ), #224, .T. ) ;
#226 = FACE_OUTER_BOUND ( 'NONE', #205, .T. ) ;
#227 = AXIS2_PLACEMENT_3D ( 'NONE', #168, #12, #146 ) ;
#228 = EDGE_CURVE ( 'NONE', #8, #8, #254, .T. ) ;
#229 = DIRECTION ( 'NONE',  ( -3.491481338843133355E-15, 1.224646799147353207E-16, -1.000000000000000000 ) ) ;
#230 = APPROVAL ( #276, 'UNSPECIFIED' ) ;
#231 = FACE_OUTER_BOUND ( 'NONE', #101, .T. ) ;
#232 = VERTEX_POINT ( 'NONE', #34 ) ;
#233 = CARTESIAN_POINT ( 'NONE',  ( 2.164718430082742365E-14, -8.673617379884035472E-16, 6.199999999999999289 ) ) ;
#234 = CARTESIAN_POINT ( 'NONE',  ( 2.359702633912850181E-14, -8.276722677596945710E-16, 6.758456955392789567 ) ) ;
#235 = CARTESIAN_POINT ( 'NONE',  ( 1.042207179644675275E-13, 0.7499999999999962252, 29.84999999999999787 ) ) ;
#236 = EDGE_LOOP ( 'NONE', ( #106 ) ) ;
#237 = CC_DESIGN_PERSON_AND_ORGANIZATION_ASSIGNMENT ( #14, #73, ( #43 ) ) ;
#238 = EDGE_CURVE ( 'NONE', #52, #52, #110, .T. ) ;
#239 = AXIS2_PLACEMENT_3D ( 'NONE', #271, #229, #187 ) ;
#240 = ORGANIZATION ( 'UNSPECIFIED', 'UNSPECIFIED', '' ) ;
#241 = COORDINATED_UNIVERSAL_TIME_OFFSET ( 1, 0, .AHEAD. ) ;
#242 = DIRECTION ( 'NONE',  ( 0.0000000000000000000, 1.000000000000000000, 0.0000000000000000000 ) ) ;
#243 = ORIENTED_EDGE ( 'NONE', *, *, #228, .T. ) ;
#244 = LOCAL_TIME ( 10, 8, 50.00000000000000000, #173 ) ;
#245 = ORIENTED_EDGE ( 'NONE', *, *, #238, .F. ) ;
#246 = AXIS2_PLACEMENT_3D ( 'NONE', #249, #53, #10 ) ;
#247 = SECURITY_CLASSIFICATION ( '', '', #220 ) ;
#248 = CARTESIAN_POINT ( 'NONE',  ( 2.164718430082742680E-14, 0.6179999999999993276, 6.200000000000000178 ) ) ;
#249 = CARTESIAN_POINT ( 'NONE',  ( 1.745740669421566678E-14, -6.123233995736766282E-16, 5.000000000000000000 ) ) ;
#250 = EDGE_CURVE ( 'NONE', #147, #147, #189, .T. ) ;
#251 = PERSON_AND_ORGANIZATION ( #61, #240 ) ;
#252 = CARTESIAN_POINT ( 'NONE',  ( 1.047444401652940007E-13, 4.499279347985518085E-33, 30.00000000000000000 ) ) ;
#253 = DIRECTION ( 'NONE',  ( 3.491481338843133355E-15, -1.224646799147353207E-16, 1.000000000000000000 ) ) ;
#254 = CIRCLE ( 'NONE', #40, 0.6350370868554647830 ) ;
#255 = PERSON_AND_ORGANIZATION ( #61, #240 ) ;
#256 = ADVANCED_FACE ( 'NONE', ( #226 ), #258, .F. ) ;
#257 = DIRECTION ( 'NONE',  ( -3.491481338843133355E-15, 1.224646799147353207E-16, -1.000000000000000000 ) ) ;
#258 = PLANE ( 'NONE',  #92 ) ;
#259 = MECHANICAL_CONTEXT ( 'NONE', #172, 'mechanical' ) ;
#260 = DIRECTION ( 'NONE',  ( -3.491481338843133355E-15, 1.224646799147353207E-16, -1.000000000000000000 ) ) ;
#261 = PRODUCT_RELATED_PRODUCT_CATEGORY ( 'detail', '', ( #264 ) ) ;
#262 = CALENDAR_DATE ( 2021, 16, 12 ) ;
#263 = MANIFOLD_SOLID_BREP ( 'Corps-Déplacer/Copier1[2]', #188 ) ;
#264 = PRODUCT ( '303492', '303492', '', ( #259 ) ) ;
#265 = PRODUCT_DEFINITION_FORMATION_WITH_SPECIFIED_SOURCE ( 'ANY', '', #264, .NOT_KNOWN. ) ;
#266 = ORIENTED_EDGE ( 'NONE', *, *, #238, .T. ) ;
#267 = EDGE_LOOP ( 'NONE', ( #84 ) ) ;
#268 = VERTEX_POINT ( 'NONE', #28 ) ;
#269 = CARTESIAN_POINT ( 'NONE',  ( 1.745740669421566678E-14, 4.634257728425130456E-33, 5.000000000000000000 ) ) ;
#270 = DIRECTION ( 'NONE',  ( 0.0000000000000000000, 0.0000000000000000000, 1.000000000000000000 ) ) ;
#271 = CARTESIAN_POINT ( 'NONE',  ( 1.047444401652940007E-13, -3.673940397442059178E-15, 30.00000000000000000 ) ) ;
#272 =( NAMED_UNIT ( * ) SI_UNIT ( $, .STERADIAN. ) SOLID_ANGLE_UNIT ( ) );
#273 = ORIENTED_EDGE ( 'NONE', *, *, #99, .F. ) ;
#274 = DATE_AND_TIME ( #104, #113 ) ;
#275 = FACE_BOUND ( 'NONE', #202, .T. ) ;
#276 = APPROVAL_STATUS ( 'not_yet_approved' ) ;
#277 = FACE_OUTER_BOUND ( 'NONE', #20, .T. ) ;
#278 = FACE_OUTER_BOUND ( 'NONE', #25, .T. ) ;
#279 = ADVANCED_FACE ( 'NONE', ( #197 ), #83, .F. ) ;
#280 = COORDINATED_UNIVERSAL_TIME_OFFSET ( 1, 0, .AHEAD. ) ;
#281 = APPROVAL ( #36, 'UNSPECIFIED' ) ;
#282 = CYLINDRICAL_SURFACE ( 'NONE', #179, 0.6180000000000001048 ) ;
#283 = ORIENTED_EDGE ( 'NONE', *, *, #250, .F. ) ;
ENDSEC;
END-ISO-10303-21;
