ISO-10303-21;
HEADER;
FILE_DESCRIPTION (( 'STEP AP203' ),
    '1' );
FILE_NAME ('303491.step',
    '2021-12-16T09:08:49',
    ( '' ),
    ( '' ),
    'SwSTEP 2.0',
    'SolidWorks 2019',
    '' );
FILE_SCHEMA (( 'CONFIG_CONTROL_DESIGN' ));
ENDSEC;

DATA;
#1 = VERTEX_POINT ( 'NONE', #283 ) ;
#2 = ADVANCED_FACE ( 'NONE', ( #97, #43 ), #62, .T. ) ;
#3 = TOROIDAL_SURFACE ( 'NONE', #41, 1.018000000000000016, 0.4999999999999998890 ) ;
#4 = APPLICATION_PROTOCOL_DEFINITION ( 'international standard', 'config_control_design', 1994, #103 ) ;
#5 = APPROVAL_STATUS ( 'not_yet_approved' ) ;
#6 = EDGE_LOOP ( 'NONE', ( #208 ) ) ;
#7 = PERSON_AND_ORGANIZATION ( #196, #108 ) ;
#8 = ORIENTED_EDGE ( 'NONE', *, *, #245, .T. ) ;
#9 = AXIS2_PLACEMENT_3D ( 'NONE', #23, #241, #127 ) ;
#10 = MANIFOLD_SOLID_BREP ( 'Corps-Déplacer/Copier1[2]', #232 ) ;
#11 = CONICAL_SURFACE ( 'NONE', #272, 0.5179999999999994609, 0.2617993877991429685 ) ;
#12 = EDGE_LOOP ( 'NONE', ( #168 ) ) ;
#13 = EDGE_LOOP ( 'NONE', ( #134 ) ) ;
#14 = AXIS2_PLACEMENT_3D ( 'NONE', #107, #197, #259 ) ;
#15 = CIRCLE ( 'NONE', #267, 0.7499999999999998890 ) ;
#16 = FACE_OUTER_BOUND ( 'NONE', #120, .T. ) ;
#17 = CC_DESIGN_PERSON_AND_ORGANIZATION_ASSIGNMENT ( #118, #159, ( #86 ) ) ;
#18 = ADVANCED_FACE ( 'NONE', ( #257 ), #280, .F. ) ;
#19 = DIRECTION ( 'NONE',  ( -4.275831445896958607E-31, -1.000000000000000000, -1.224646799147353207E-16 ) ) ;
#20 = DIRECTION ( 'NONE',  ( 4.275831445896958607E-31, 1.000000000000000000, 1.224646799147353207E-16 ) ) ;
#21 = DIRECTION ( 'NONE',  ( -3.491481338843133355E-15, 1.224646799147353207E-16, -1.000000000000000000 ) ) ;
#22 = DIRECTION ( 'NONE',  ( -3.491481338843133355E-15, 1.224646799147353207E-16, -1.000000000000000000 ) ) ;
#23 = CARTESIAN_POINT ( 'NONE',  ( 1.860753389504060636E-14, -6.526644313137820962E-16, 5.329409522551256551 ) ) ;
#24 = DESIGN_CONTEXT ( 'detailed design', #63, 'design' ) ;
#25 = CC_DESIGN_APPROVAL ( #151, ( #243 ) ) ;
#26 = DIRECTION ( 'NONE',  ( -4.275831445896958607E-31, -1.000000000000000000, -1.224646799147353207E-16 ) ) ;
#27 = CC_DESIGN_PERSON_AND_ORGANIZATION_ASSIGNMENT ( #94, #268, ( #86 ) ) ;
#28 = CARTESIAN_POINT ( 'NONE',  ( 1.815570296198429345E-14, -6.505213034913026604E-16, 5.200000000000000178 ) ) ;
#29 = ADVANCED_FACE ( 'NONE', ( #146 ), #213, .T. ) ;
#30 = FACE_OUTER_BOUND ( 'NONE', #73, .T. ) ;
#31 =( NAMED_UNIT ( * ) PLANE_ANGLE_UNIT ( ) SI_UNIT ( $, .RADIAN. ) );
#32 = APPROVAL_DATE_TIME ( #187, #169 ) ;
#33 = EDGE_LOOP ( 'NONE', ( #8 ) ) ;
#34 = APPROVAL_PERSON_ORGANIZATION ( #115, #48, #185 ) ;
#35 = CIRCLE ( 'NONE', #279, 0.5179999999999999050 ) ;
#36 = AXIS2_PLACEMENT_3D ( 'NONE', #214, #195, #20 ) ;
#37 = COORDINATED_UNIVERSAL_TIME_OFFSET ( 1, 0, .AHEAD. ) ;
#38 = EDGE_LOOP ( 'NONE', ( #181 ) ) ;
#39 = CALENDAR_DATE ( 2021, 16, 12 ) ;
#40 = EDGE_LOOP ( 'NONE', ( #139 ) ) ;
#41 = AXIS2_PLACEMENT_3D ( 'NONE', #28, #218, #219 ) ;
#42 = EDGE_CURVE ( 'NONE', #111, #111, #15, .T. ) ;
#43 = FACE_OUTER_BOUND ( 'NONE', #136, .T. ) ;
#44 = FACE_BOUND ( 'NONE', #166, .T. ) ;
#45 = CARTESIAN_POINT ( 'NONE',  ( 0.0000000000000000000, 0.0000000000000000000, 0.0000000000000000000 ) ) ;
#46 = DIRECTION ( 'NONE',  ( -3.491481338843133355E-15, 1.224646799147353207E-16, -1.000000000000000000 ) ) ;
#47 = DIRECTION ( 'NONE',  ( 0.0000000000000000000, 1.000000000000000000, 0.0000000000000000000 ) ) ;
#48 = APPROVAL ( #270, 'UNSPECIFIED' ) ;
#49 = PRODUCT ( '303491', '303491', '', ( #206 ) ) ;
#50 = ADVANCED_FACE ( 'NONE', ( #44, #190 ), #11, .T. ) ;
#51 = LOCAL_TIME ( 10, 8, 49.00000000000000000, #37 ) ;
#52 = VERTEX_POINT ( 'NONE', #242 ) ;
#53 = CARTESIAN_POINT ( 'NONE',  ( 2.645168307299021765E-15, -9.278001473761592480E-17, 0.7576063139364997978 ) ) ;
#54 = APPROVAL_STATUS ( 'not_yet_approved' ) ;
#55 = ORIENTED_EDGE ( 'NONE', *, *, #164, .F. ) ;
#56 = CALENDAR_DATE ( 2021, 16, 12 ) ;
#57 = ADVANCED_FACE ( 'NONE', ( #144, #253 ), #106, .T. ) ;
#58 = COORDINATED_UNIVERSAL_TIME_OFFSET ( 1, 0, .AHEAD. ) ;
#59 = CARTESIAN_POINT ( 'NONE',  ( 0.0000000000000000000, 0.0000000000000000000, 0.0000000000000000000 ) ) ;
#60 = AXIS2_PLACEMENT_3D ( 'NONE', #176, #260, #26 ) ;
#61 = CIRCLE ( 'NONE', #223, 0.3149999999999999467 ) ;
#62 = CYLINDRICAL_SURFACE ( 'NONE', #143, 0.5180000000000000160 ) ;
#63 = APPLICATION_CONTEXT ( 'configuration controlled 3d designs of mechanical parts and assemblies' ) ;
#64 = DIRECTION ( 'NONE',  ( -3.491481338843133355E-15, 1.224646799147353207E-16, -1.000000000000000000 ) ) ;
#65 = FACE_BOUND ( 'NONE', #6, .T. ) ;
#66 = CARTESIAN_POINT ( 'NONE',  ( 1.815570296198429345E-14, -6.368163355566236381E-16, 5.200000000000000178 ) ) ;
#67 = DIRECTION ( 'NONE',  ( 0.0000000000000000000, 1.000000000000000000, 0.0000000000000000000 ) ) ;
#68 = CARTESIAN_POINT ( 'NONE',  ( -2.138211768073756517E-47, 0.3149999999999999467, 0.0000000000000000000 ) ) ;
#69 = VERTEX_POINT ( 'NONE', #90 ) ;
#70 = AXIS2_PLACEMENT_3D ( 'NONE', #234, #175, #19 ) ;
#71 = VERTEX_POINT ( 'NONE', #199 ) ;
#72 = CLOSED_SHELL ( 'NONE', ( #278, #2, #273, #133, #210, #188, #18 ) ) ;
#73 = EDGE_LOOP ( 'NONE', ( #231 ) ) ;
#74 = CALENDAR_DATE ( 2021, 16, 12 ) ;
#75 = ORIENTED_EDGE ( 'NONE', *, *, #194, .F. ) ;
#76 = ORIENTED_EDGE ( 'NONE', *, *, #42, .T. ) ;
#77 = APPROVAL_ROLE ( '' ) ;
#78 = EDGE_LOOP ( 'NONE', ( #99 ) ) ;
#79 = COORDINATED_UNIVERSAL_TIME_OFFSET ( 1, 0, .AHEAD. ) ;
#80 = ORIENTED_EDGE ( 'NONE', *, *, #200, .F. ) ;
#81 = DIRECTION ( 'NONE',  ( -3.491481338843133355E-15, 1.224646799147353207E-16, -1.000000000000000000 ) ) ;
#82 = DIRECTION ( 'NONE',  ( 4.275831445896958607E-31, 1.000000000000000000, 1.224646799147353207E-16 ) ) ;
#83 = FACE_BOUND ( 'NONE', #117, .T. ) ;
#84 = CYLINDRICAL_SURFACE ( 'NONE', #215, 0.7499999999999984457 ) ;
#85 = DIRECTION ( 'NONE',  ( -3.491481338843133355E-15, 1.224646799147353207E-16, -1.000000000000000000 ) ) ;
#86 = PRODUCT_DEFINITION_FORMATION_WITH_SPECIFIED_SOURCE ( 'ANY', '', #49, .NOT_KNOWN. ) ;
#87 =( NAMED_UNIT ( * ) SI_UNIT ( $, .STERADIAN. ) SOLID_ANGLE_UNIT ( ) );
#88 = FACE_OUTER_BOUND ( 'NONE', #247, .T. ) ;
#89 = CIRCLE ( 'NONE', #153, 0.5179999999999994609 ) ;
#90 = CARTESIAN_POINT ( 'NONE',  ( 1.396592535537253342E-14, 0.5179999999999993499, 4.000000000000000000 ) ) ;
#91 = DATE_AND_TIME ( #167, #152 ) ;
#92 = ORIENTED_EDGE ( 'NONE', *, *, #245, .F. ) ;
#93 = SECURITY_CLASSIFICATION ( '', '', #274 ) ;
#94 = PERSON_AND_ORGANIZATION ( #196, #108 ) ;
#95 = EDGE_CURVE ( 'NONE', #203, #203, #61, .T. ) ;
#96 = PERSON_AND_ORGANIZATION_ROLE ( 'creator' ) ;
#97 = FACE_OUTER_BOUND ( 'NONE', #78, .T. ) ;
#98 = AXIS2_PLACEMENT_3D ( 'NONE', #123, #104, #216 ) ;
#99 = ORIENTED_EDGE ( 'NONE', *, *, #224, .F. ) ;
#100 = FACE_OUTER_BOUND ( 'NONE', #158, .T. ) ;
#101 = DIRECTION ( 'NONE',  ( -3.491481338843133355E-15, 1.224646799147353207E-16, -1.000000000000000000 ) ) ;
#102 = PRODUCT_RELATED_PRODUCT_CATEGORY ( 'detail', '', ( #49 ) ) ;
#103 = APPLICATION_CONTEXT ( 'configuration controlled 3d designs of mechanical parts and assemblies' ) ;
#104 = DIRECTION ( 'NONE',  ( 3.491481338843133355E-15, -1.224646799147353207E-16, 1.000000000000000000 ) ) ;
#105 = DIRECTION ( 'NONE',  ( 0.0000000000000000000, 1.000000000000000000, 0.0000000000000000000 ) ) ;
#106 = CYLINDRICAL_SURFACE ( 'NONE', #173, 0.5179999999999996829 ) ;
#107 = CARTESIAN_POINT ( 'NONE',  ( 0.0000000000000000000, 0.0000000000000000000, 0.0000000000000000000 ) ) ;
#108 = ORGANIZATION ( 'UNSPECIFIED', 'UNSPECIFIED', '' ) ;
#109 = CARTESIAN_POINT ( 'NONE',  ( 1.815570296198429345E-14, 0.5179999999999993499, 5.200000000000000178 ) ) ;
#110 = UNCERTAINTY_MEASURE_WITH_UNIT (LENGTH_MEASURE( 1.000000000000000082E-05 ), #240, 'distance_accuracy_value', 'NONE');
#111 = VERTEX_POINT ( 'NONE', #155 ) ;
#112 = LOCAL_TIME ( 10, 8, 49.00000000000000000, #251 ) ;
#113 = DIRECTION ( 'NONE',  ( 3.491481338843133355E-15, -1.224646799147353207E-16, 1.000000000000000000 ) ) ;
#114 = CC_DESIGN_PERSON_AND_ORGANIZATION_ASSIGNMENT ( #165, #96, ( #243 ) ) ;
#115 = PERSON_AND_ORGANIZATION ( #196, #108 ) ;
#116 = CONICAL_SURFACE ( 'NONE', #163, 0.6000000000000000888, 0.7853981633974450594 ) ;
#117 = EDGE_LOOP ( 'NONE', ( #229 ) ) ;
#118 = PERSON_AND_ORGANIZATION ( #196, #108 ) ;
#119 = PERSON_AND_ORGANIZATION ( #196, #108 ) ;
#120 = EDGE_LOOP ( 'NONE', ( #76 ) ) ;
#121 = EDGE_LOOP ( 'NONE', ( #228 ) ) ;
#122 = CC_DESIGN_PERSON_AND_ORGANIZATION_ASSIGNMENT ( #132, #138, ( #49 ) ) ;
#123 = CARTESIAN_POINT ( 'NONE',  ( 2.140858357530952124E-14, -7.509120286024056409E-16, 6.131662036149687189 ) ) ;
#124 = CARTESIAN_POINT ( 'NONE',  ( 2.140858357530952124E-14, -7.509120286024056409E-16, 6.131662036149687189 ) ) ;
#125 = AXIS2_PLACEMENT_3D ( 'NONE', #275, #64, #212 ) ;
#126 = CARTESIAN_POINT ( 'NONE',  ( 1.396592535537253342E-14, -4.898587196589412829E-16, 4.000000000000000000 ) ) ;
#127 = DIRECTION ( 'NONE',  ( 0.0000000000000000000, 1.000000000000000000, 0.0000000000000000000 ) ) ;
#128 = DIRECTION ( 'NONE',  ( 7.436022951302076705E-31, 1.000000000000000000, 2.093054387037655536E-16 ) ) ;
#129 = CIRCLE ( 'NONE', #252, 0.5179999999999999050 ) ;
#130 = CARTESIAN_POINT ( 'NONE',  ( -6.734434527287710156E-32, 2.362121657692425527E-33, -1.928818708657081344E-17 ) ) ;
#131 = CARTESIAN_POINT ( 'NONE',  ( 1.047444401652940007E-13, 0.5999999999999963141, 30.00000000000000000 ) ) ;
#132 = PERSON_AND_ORGANIZATION ( #196, #108 ) ;
#133 = ADVANCED_FACE ( 'NONE', ( #65, #172 ), #266, .T. ) ;
#134 = ORIENTED_EDGE ( 'NONE', *, *, #140, .F. ) ;
#135 = DATE_AND_TIME ( #56, #250 ) ;
#136 = EDGE_LOOP ( 'NONE', ( #160 ) ) ;
#137 = CIRCLE ( 'NONE', #186, 0.5180000000000000160 ) ;
#138 = PERSON_AND_ORGANIZATION_ROLE ( 'design_owner' ) ;
#139 = ORIENTED_EDGE ( 'NONE', *, *, #140, .T. ) ;
#140 = EDGE_CURVE ( 'NONE', #1, #1, #35, .T. ) ;
#141 = APPROVAL_PERSON_ORGANIZATION ( #119, #151, #77 ) ;
#142 = DIRECTION ( 'NONE',  ( -3.491481338843133355E-15, 1.224646799147353207E-16, -1.000000000000000000 ) ) ;
#143 = AXIS2_PLACEMENT_3D ( 'NONE', #45, #81, #192 ) ;
#144 = FACE_OUTER_BOUND ( 'NONE', #162, .T. ) ;
#145 = CARTESIAN_POINT ( 'NONE',  ( -1.346886905457542031E-31, 4.724243315384851054E-33, -3.857637417314162689E-17 ) ) ;
#146 = FACE_OUTER_BOUND ( 'NONE', #13, .T. ) ;
#147 = CC_DESIGN_SECURITY_CLASSIFICATION ( #93, ( #86 ) ) ;
#148 = DIRECTION ( 'NONE',  ( 0.0000000000000000000, 1.000000000000000000, 0.0000000000000000000 ) ) ;
#149 = DIRECTION ( 'NONE',  ( -3.491481338843133355E-15, 1.224646799147353207E-16, -1.000000000000000000 ) ) ;
#150 = DIRECTION ( 'NONE',  ( -3.491481338843133355E-15, 1.224646799147353207E-16, -1.000000000000000000 ) ) ;
#151 = APPROVAL ( #5, 'UNSPECIFIED' ) ;
#152 = LOCAL_TIME ( 10, 8, 49.00000000000000000, #79 ) ;
#153 = AXIS2_PLACEMENT_3D ( 'NONE', #53, #149, #128 ) ;
#154 = CARTESIAN_POINT ( 'NONE',  ( 2.645168307299022160E-15, 0.5179999999999993499, 0.7576063139364999088 ) ) ;
#155 = CARTESIAN_POINT ( 'NONE',  ( 1.042207179644675275E-13, 0.7499999999999962252, 29.84999999999999787 ) ) ;
#156 = AXIS2_PLACEMENT_3D ( 'NONE', #130, #113, #221 ) ;
#157 = APPROVAL_DATE_TIME ( #91, #151 ) ;
#158 = EDGE_LOOP ( 'NONE', ( #80 ) ) ;
#159 = PERSON_AND_ORGANIZATION_ROLE ( 'design_supplier' ) ;
#160 = ORIENTED_EDGE ( 'NONE', *, *, #164, .T. ) ;
#161 = DATE_TIME_ROLE ( 'creation_date' ) ;
#162 = EDGE_LOOP ( 'NONE', ( #92 ) ) ;
#163 = AXIS2_PLACEMENT_3D ( 'NONE', #193, #236, #254 ) ;
#164 = EDGE_CURVE ( 'NONE', #205, #205, #137, .T. ) ;
#165 = PERSON_AND_ORGANIZATION ( #196, #108 ) ;
#166 = EDGE_LOOP ( 'NONE', ( #244 ) ) ;
#167 = CALENDAR_DATE ( 2021, 16, 12 ) ;
#168 = ORIENTED_EDGE ( 'NONE', *, *, #200, .T. ) ;
#169 = APPROVAL ( #54, 'UNSPECIFIED' ) ;
#170 = CARTESIAN_POINT ( 'NONE',  ( 2.645168307299021765E-15, -9.278001473761592480E-17, 0.7576063139364997978 ) ) ;
#171 = CIRCLE ( 'NONE', #125, 0.6000000000000000888 ) ;
#172 = FACE_OUTER_BOUND ( 'NONE', #12, .T. ) ;
#173 = AXIS2_PLACEMENT_3D ( 'NONE', #277, #46, #82 ) ;
#174 = CARTESIAN_POINT ( 'NONE',  ( 1.396592535537253342E-14, -4.898587196589412829E-16, 4.000000000000000000 ) ) ;
#175 = DIRECTION ( 'NONE',  ( 3.491481338843133355E-15, -1.224646799147353207E-16, 1.000000000000000000 ) ) ;
#176 = CARTESIAN_POINT ( 'NONE',  ( 1.396592535537253342E-14, 3.884377837094203021E-33, 4.000000000000000000 ) ) ;
#177 = PLANE ( 'NONE',  #60 ) ;
#178 = APPROVAL_PERSON_ORGANIZATION ( #225, #169, #184 ) ;
#179 = FACE_OUTER_BOUND ( 'NONE', #38, .T. ) ;
#180 = APPROVAL_DATE_TIME ( #227, #48 ) ;
#181 = ORIENTED_EDGE ( 'NONE', *, *, #95, .T. ) ;
#182 = CIRCLE ( 'NONE', #256, 0.7499999999999971134 ) ;
#183 = DATE_AND_TIME ( #74, #112 ) ;
#184 = APPROVAL_ROLE ( '' ) ;
#185 = APPROVAL_ROLE ( '' ) ;
#186 = AXIS2_PLACEMENT_3D ( 'NONE', #66, #85, #148 ) ;
#187 = DATE_AND_TIME ( #207, #51 ) ;
#188 = ADVANCED_FACE ( 'NONE', ( #239, #83 ), #116, .T. ) ;
#189 = DIRECTION ( 'NONE',  ( -7.436022951302076705E-31, -1.000000000000000000, -2.093054387037655536E-16 ) ) ;
#190 = FACE_OUTER_BOUND ( 'NONE', #33, .T. ) ;
#191 = CIRCLE ( 'NONE', #9, 0.5350370868554654713 ) ;
#192 = DIRECTION ( 'NONE',  ( 4.275831445896958607E-31, 1.000000000000000000, 1.224646799147352961E-16 ) ) ;
#193 = CARTESIAN_POINT ( 'NONE',  ( 1.047444401652940007E-13, -3.673940397442059178E-15, 30.00000000000000000 ) ) ;
#194 = EDGE_CURVE ( 'NONE', #262, #262, #171, .T. ) ;
#195 = DIRECTION ( 'NONE',  ( -3.491481338843133355E-15, 1.224646799147353207E-16, -1.000000000000000000 ) ) ;
#196 = PERSON ( 'UNSPECIFIED', 'UNSPECIFIED', 'UNSPECIFIED', ('UNSPECIFIED'), ('UNSPECIFIED'), ('UNSPECIFIED') ) ;
#197 = DIRECTION ( 'NONE',  ( 0.0000000000000000000, 0.0000000000000000000, 1.000000000000000000 ) ) ;
#198 = CC_DESIGN_DATE_AND_TIME_ASSIGNMENT ( #183, #161, ( #243 ) ) ;
#199 = CARTESIAN_POINT ( 'NONE',  ( 2.140858357530952124E-14, 0.7499999999999963363, 6.131662036149687189 ) ) ;
#200 = EDGE_CURVE ( 'NONE', #71, #71, #182, .T. ) ;
#201 = MANIFOLD_SOLID_BREP ( 'Corps-Déplacer/Copier1[1]', #72 ) ;
#202 = PLANE ( 'NONE',  #156 ) ;
#203 = VERTEX_POINT ( 'NONE', #68 ) ;
#204 = LOCAL_TIME ( 10, 8, 49.00000000000000000, #58 ) ;
#205 = VERTEX_POINT ( 'NONE', #109 ) ;
#206 = MECHANICAL_CONTEXT ( 'NONE', #103, 'mechanical' ) ;
#207 = CALENDAR_DATE ( 2021, 16, 12 ) ;
#208 = ORIENTED_EDGE ( 'NONE', *, *, #235, .F. ) ;
#209 = CC_DESIGN_PERSON_AND_ORGANIZATION_ASSIGNMENT ( #7, #230, ( #93 ) ) ;
#210 = ADVANCED_FACE ( 'NONE', ( #100, #16 ), #84, .T. ) ;
#211 = SHAPE_DEFINITION_REPRESENTATION ( #261, #258 ) ;
#212 = DIRECTION ( 'NONE',  ( 0.0000000000000000000, 1.000000000000000000, 0.0000000000000000000 ) ) ;
#213 = PLANE ( 'NONE',  #70 ) ;
#214 = CARTESIAN_POINT ( 'NONE',  ( 1.047444401652940007E-13, 4.499279347985518085E-33, 30.00000000000000000 ) ) ;
#215 = AXIS2_PLACEMENT_3D ( 'NONE', #59, #142, #233 ) ;
#216 = DIRECTION ( 'NONE',  ( 0.0000000000000000000, -1.000000000000000000, 0.0000000000000000000 ) ) ;
#217 = DIRECTION ( 'NONE',  ( 4.275831445896958607E-31, 1.000000000000000000, 1.224646799147353454E-16 ) ) ;
#218 = DIRECTION ( 'NONE',  ( -3.491481338843133355E-15, 1.224646799147353207E-16, -1.000000000000000000 ) ) ;
#219 = DIRECTION ( 'NONE',  ( 4.275831445896958607E-31, 1.000000000000000000, 1.224646799147353207E-16 ) ) ;
#220 = CC_DESIGN_APPROVAL ( #169, ( #86 ) ) ;
#221 = DIRECTION ( 'NONE',  ( -4.275831445896958607E-31, -1.000000000000000000, -1.224646799147353207E-16 ) ) ;
#222 = VERTEX_POINT ( 'NONE', #154 ) ;
#223 = AXIS2_PLACEMENT_3D ( 'NONE', #145, #22, #217 ) ;
#224 = EDGE_CURVE ( 'NONE', #69, #69, #129, .T. ) ;
#225 = PERSON_AND_ORGANIZATION ( #196, #108 ) ;
#226 = COORDINATED_UNIVERSAL_TIME_OFFSET ( 1, 0, .AHEAD. ) ;
#227 = DATE_AND_TIME ( #39, #204 ) ;
#228 = ORIENTED_EDGE ( 'NONE', *, *, #224, .T. ) ;
#229 = ORIENTED_EDGE ( 'NONE', *, *, #194, .T. ) ;
#230 = PERSON_AND_ORGANIZATION_ROLE ( 'classification_officer' ) ;
#231 = ORIENTED_EDGE ( 'NONE', *, *, #235, .T. ) ;
#232 = CLOSED_SHELL ( 'NONE', ( #264, #50, #57, #29 ) ) ;
#233 = DIRECTION ( 'NONE',  ( 4.275831445896958607E-31, 1.000000000000000000, 1.224646799147353454E-16 ) ) ;
#234 = CARTESIAN_POINT ( 'NONE',  ( 1.396592535537253342E-14, 3.884377837094203021E-33, 4.000000000000000000 ) ) ;
#235 = EDGE_CURVE ( 'NONE', #52, #52, #191, .T. ) ;
#236 = DIRECTION ( 'NONE',  ( -3.491481338843133355E-15, 1.224646799147353207E-16, -1.000000000000000000 ) ) ;
#237 =( GEOMETRIC_REPRESENTATION_CONTEXT ( 3 ) GLOBAL_UNCERTAINTY_ASSIGNED_CONTEXT ( ( #110 ) ) GLOBAL_UNIT_ASSIGNED_CONTEXT ( ( #240, #31, #87 ) ) REPRESENTATION_CONTEXT ( 'NONE', 'WORKASPACE' ) );
#238 = DIRECTION ( 'NONE',  ( 0.0000000000000000000, 1.000000000000000000, 0.0000000000000000000 ) ) ;
#239 = FACE_OUTER_BOUND ( 'NONE', #249, .T. ) ;
#240 =( LENGTH_UNIT ( ) NAMED_UNIT ( * ) SI_UNIT ( .MILLI., .METRE. ) );
#241 = DIRECTION ( 'NONE',  ( -3.491481338843133355E-15, 1.224646799147353207E-16, -1.000000000000000000 ) ) ;
#242 = CARTESIAN_POINT ( 'NONE',  ( 1.860753389504060636E-14, 0.5350370868554648052, 5.329409522551256551 ) ) ;
#243 = PRODUCT_DEFINITION ( 'UNKNOWN', '', #86, #24 ) ;
#244 = ORIENTED_EDGE ( 'NONE', *, *, #95, .F. ) ;
#245 = EDGE_CURVE ( 'NONE', #222, #222, #89, .T. ) ;
#246 = APPLICATION_PROTOCOL_DEFINITION ( 'international standard', 'config_control_design', 1994, #63 ) ;
#247 = EDGE_LOOP ( 'NONE', ( #55 ) ) ;
#248 = DATE_TIME_ROLE ( 'classification_date' ) ;
#249 = EDGE_LOOP ( 'NONE', ( #265 ) ) ;
#250 = LOCAL_TIME ( 10, 8, 49.00000000000000000, #226 ) ;
#251 = COORDINATED_UNIVERSAL_TIME_OFFSET ( 1, 0, .AHEAD. ) ;
#252 = AXIS2_PLACEMENT_3D ( 'NONE', #174, #150, #67 ) ;
#253 = FACE_OUTER_BOUND ( 'NONE', #40, .T. ) ;
#254 = DIRECTION ( 'NONE',  ( 0.0000000000000000000, 1.000000000000000000, 0.0000000000000000000 ) ) ;
#255 = CARTESIAN_POINT ( 'NONE',  ( 1.042207179644675275E-13, -3.655570695454848748E-15, 29.84999999999999787 ) ) ;
#256 = AXIS2_PLACEMENT_3D ( 'NONE', #124, #21, #105 ) ;
#257 = FACE_OUTER_BOUND ( 'NONE', #269, .T. ) ;
#258 = ADVANCED_BREP_SHAPE_REPRESENTATION ( '303491', ( #201, #10, #14 ), #237 ) ;
#259 = DIRECTION ( 'NONE',  ( 1.000000000000000000, 0.0000000000000000000, 0.0000000000000000000 ) ) ;
#260 = DIRECTION ( 'NONE',  ( 3.491481338843133355E-15, -1.224646799147353207E-16, 1.000000000000000000 ) ) ;
#261 = PRODUCT_DEFINITION_SHAPE ( 'NONE', 'NONE',  #243 ) ;
#262 = VERTEX_POINT ( 'NONE', #131 ) ;
#263 = FACE_OUTER_BOUND ( 'NONE', #121, .T. ) ;
#264 = ADVANCED_FACE ( 'NONE', ( #179 ), #202, .F. ) ;
#265 = ORIENTED_EDGE ( 'NONE', *, *, #42, .F. ) ;
#266 = CONICAL_SURFACE ( 'NONE', #98, 0.7499999999999971134, 0.2617993877991424689 ) ;
#267 = AXIS2_PLACEMENT_3D ( 'NONE', #255, #101, #238 ) ;
#268 = PERSON_AND_ORGANIZATION_ROLE ( 'creator' ) ;
#269 = EDGE_LOOP ( 'NONE', ( #75 ) ) ;
#270 = APPROVAL_STATUS ( 'not_yet_approved' ) ;
#271 = CC_DESIGN_APPROVAL ( #48, ( #93 ) ) ;
#272 = AXIS2_PLACEMENT_3D ( 'NONE', #170, #281, #189 ) ;
#273 = ADVANCED_FACE ( 'NONE', ( #88, #30 ), #3, .F. ) ;
#274 = SECURITY_CLASSIFICATION_LEVEL ( 'unclassified' ) ;
#275 = CARTESIAN_POINT ( 'NONE',  ( 1.047444401652940007E-13, -3.673940397442059178E-15, 30.00000000000000000 ) ) ;
#276 = CC_DESIGN_DATE_AND_TIME_ASSIGNMENT ( #135, #248, ( #93 ) ) ;
#277 = CARTESIAN_POINT ( 'NONE',  ( 0.0000000000000000000, 0.0000000000000000000, 0.0000000000000000000 ) ) ;
#278 = ADVANCED_FACE ( 'NONE', ( #263 ), #177, .F. ) ;
#279 = AXIS2_PLACEMENT_3D ( 'NONE', #126, #282, #47 ) ;
#280 = PLANE ( 'NONE',  #36 ) ;
#281 = DIRECTION ( 'NONE',  ( 3.491481338843133355E-15, -1.224646799147353207E-16, 1.000000000000000000 ) ) ;
#282 = DIRECTION ( 'NONE',  ( -3.491481338843133355E-15, 1.224646799147353207E-16, -1.000000000000000000 ) ) ;
#283 = CARTESIAN_POINT ( 'NONE',  ( 1.396592535537253342E-14, 0.5179999999999993499, 4.000000000000000000 ) ) ;
ENDSEC;
END-ISO-10303-21;
