ISO-10303-21;
HEADER;
FILE_DESCRIPTION (( 'STEP AP203' ),
    '1' );
FILE_NAME ('303489.step',
    '2021-12-16T09:08:48',
    ( '' ),
    ( '' ),
    'SwSTEP 2.0',
    'SolidWorks 2019',
    '' );
FILE_SCHEMA (( 'CONFIG_CONTROL_DESIGN' ));
ENDSEC;

DATA;
#1 = ORIENTED_EDGE ( 'NONE', *, *, #139, .F. ) ;
#2 = ORIENTED_EDGE ( 'NONE', *, *, #19, .F. ) ;
#3 = CC_DESIGN_APPROVAL ( #61, ( #88 ) ) ;
#4 = CC_DESIGN_PERSON_AND_ORGANIZATION_ASSIGNMENT ( #207, #15, ( #228 ) ) ;
#5 = AXIS2_PLACEMENT_3D ( 'NONE', #183, #138, #249 ) ;
#6 = DIRECTION ( 'NONE',  ( 4.275831445896958607E-31, 1.000000000000000000, 1.224646799147353454E-16 ) ) ;
#7 = CALENDAR_DATE ( 2021, 16, 12 ) ;
#8 = DIRECTION ( 'NONE',  ( -3.491481338843133355E-15, 1.224646799147353207E-16, -1.000000000000000000 ) ) ;
#9 = SECURITY_CLASSIFICATION_LEVEL ( 'unclassified' ) ;
#10 = EDGE_CURVE ( 'NONE', #63, #63, #106, .T. ) ;
#11 = AXIS2_PLACEMENT_3D ( 'NONE', #136, #165, #16 ) ;
#12 = DIRECTION ( 'NONE',  ( 3.491481338843133355E-15, -1.224646799147353207E-16, 1.000000000000000000 ) ) ;
#13 = DATE_TIME_ROLE ( 'classification_date' ) ;
#14 = DIRECTION ( 'NONE',  ( 0.0000000000000000000, 1.000000000000000000, 0.0000000000000000000 ) ) ;
#15 = PERSON_AND_ORGANIZATION_ROLE ( 'classification_officer' ) ;
#16 = DIRECTION ( 'NONE',  ( 0.0000000000000000000, 1.000000000000000000, 0.0000000000000000000 ) ) ;
#17 = CC_DESIGN_PERSON_AND_ORGANIZATION_ASSIGNMENT ( #205, #118, ( #185 ) ) ;
#18 = DIRECTION ( 'NONE',  ( -3.491481338843133355E-15, 1.224646799147353207E-16, -1.000000000000000000 ) ) ;
#19 = EDGE_CURVE ( 'NONE', #148, #148, #172, .T. ) ;
#20 = FACE_BOUND ( 'NONE', #70, .T. ) ;
#21 = AXIS2_PLACEMENT_3D ( 'NONE', #188, #231, #186 ) ;
#22 = CARTESIAN_POINT ( 'NONE',  ( 1.396592535537253342E-14, 0.4144999999999993689, 4.000000000000000000 ) ) ;
#23 = EDGE_LOOP ( 'NONE', ( #2 ) ) ;
#24 = PRODUCT_RELATED_PRODUCT_CATEGORY ( 'detail', '', ( #153 ) ) ;
#25 = AXIS2_PLACEMENT_3D ( 'NONE', #255, #18, #258 ) ;
#26 = PERSON ( 'UNSPECIFIED', 'UNSPECIFIED', 'UNSPECIFIED', ('UNSPECIFIED'), ('UNSPECIFIED'), ('UNSPECIFIED') ) ;
#27 = APPROVAL_DATE_TIME ( #51, #199 ) ;
#28 = DIRECTION ( 'NONE',  ( 0.0000000000000000000, 1.000000000000000000, 0.0000000000000000000 ) ) ;
#29 = CC_DESIGN_PERSON_AND_ORGANIZATION_ASSIGNMENT ( #245, #269, ( #153 ) ) ;
#30 = APPROVAL_STATUS ( 'not_yet_approved' ) ;
#31 = APPROVAL_ROLE ( '' ) ;
#32 = CARTESIAN_POINT ( 'NONE',  ( 2.258265443351737324E-14, -7.920928907906262685E-16, 6.467929294733078649 ) ) ;
#33 = CC_DESIGN_APPROVAL ( #199, ( #228 ) ) ;
#34 = DIRECTION ( 'NONE',  ( 0.0000000000000000000, 0.0000000000000000000, 1.000000000000000000 ) ) ;
#35 = CIRCLE ( 'NONE', #181, 0.4145000000000000351 ) ;
#36 = DIRECTION ( 'NONE',  ( 3.491481338843133355E-15, -1.224646799147353207E-16, 1.000000000000000000 ) ) ;
#37 = APPROVAL_DATE_TIME ( #168, #61 ) ;
#38 = DIRECTION ( 'NONE',  ( -4.275831445896958607E-31, -1.000000000000000000, -1.224646799147353207E-16 ) ) ;
#39 = FACE_OUTER_BOUND ( 'NONE', #23, .T. ) ;
#40 = CARTESIAN_POINT ( 'NONE',  ( 2.258265443351737324E-14, 0.7499999999999963363, 6.467929294733078649 ) ) ;
#41 = APPLICATION_CONTEXT ( 'configuration controlled 3d designs of mechanical parts and assemblies' ) ;
#42 = DIRECTION ( 'NONE',  ( -3.491481338843133355E-15, 1.224646799147353207E-16, -1.000000000000000000 ) ) ;
#43 = ADVANCED_FACE ( 'NONE', ( #50, #244 ), #211, .T. ) ;
#44 = PLANE ( 'NONE',  #191 ) ;
#45 = ADVANCED_BREP_SHAPE_REPRESENTATION ( '303489', ( #80, #271, #155 ), #140 ) ;
#46 = DIRECTION ( 'NONE',  ( -4.275831445896958607E-31, -1.000000000000000000, -1.224646799147353207E-16 ) ) ;
#47 = EDGE_LOOP ( 'NONE', ( #177 ) ) ;
#48 = EDGE_LOOP ( 'NONE', ( #110 ) ) ;
#49 = AXIS2_PLACEMENT_3D ( 'NONE', #32, #8, #28 ) ;
#50 = FACE_OUTER_BOUND ( 'NONE', #198, .T. ) ;
#51 = DATE_AND_TIME ( #135, #56 ) ;
#52 = DIRECTION ( 'NONE',  ( 0.0000000000000000000, -1.000000000000000000, 0.0000000000000000000 ) ) ;
#53 = PERSON_AND_ORGANIZATION_ROLE ( 'creator' ) ;
#54 = LOCAL_TIME ( 10, 8, 48.00000000000000000, #276 ) ;
#55 = DIRECTION ( 'NONE',  ( -3.491481338843133355E-15, 1.224646799147353207E-16, -1.000000000000000000 ) ) ;
#56 = LOCAL_TIME ( 10, 8, 48.00000000000000000, #91 ) ;
#57 = CLOSED_SHELL ( 'NONE', ( #192, #150, #223, #241 ) ) ;
#58 = DIRECTION ( 'NONE',  ( -4.275831445896958607E-31, -1.000000000000000000, -1.224646799147353207E-16 ) ) ;
#59 = DIRECTION ( 'NONE',  ( 4.275831445896958607E-31, 1.000000000000000000, 1.224646799147353207E-16 ) ) ;
#60 = DIRECTION ( 'NONE',  ( -3.491481338843133355E-15, 1.224646799147353207E-16, -1.000000000000000000 ) ) ;
#61 = APPROVAL ( #74, 'UNSPECIFIED' ) ;
#62 = CYLINDRICAL_SURFACE ( 'NONE', #166, 0.4144999999999996465 ) ;
#63 = VERTEX_POINT ( 'NONE', #104 ) ;
#64 = CARTESIAN_POINT ( 'NONE',  ( 2.078346527163516679E-15, 0.4144999999999993689, 0.5952621038072497539 ) ) ;
#65 = EDGE_LOOP ( 'NONE', ( #265 ) ) ;
#66 = CONICAL_SURFACE ( 'NONE', #25, 0.6000000000000000888, 0.7853981633974450594 ) ;
#67 = APPROVAL_PERSON_ORGANIZATION ( #93, #238, #122 ) ;
#68 = EDGE_CURVE ( 'NONE', #234, #234, #145, .T. ) ;
#69 = CIRCLE ( 'NONE', #77, 0.4144999999999998685 ) ;
#70 = EDGE_LOOP ( 'NONE', ( #233 ) ) ;
#71 = PLANE ( 'NONE',  #208 ) ;
#72 = COORDINATED_UNIVERSAL_TIME_OFFSET ( 1, 0, .AHEAD. ) ;
#73 = CARTESIAN_POINT ( 'NONE',  ( 2.078346527163516679E-15, -7.289858300812678837E-17, 0.5952621038072497539 ) ) ;
#74 = APPROVAL_STATUS ( 'not_yet_approved' ) ;
#75 = PLANE ( 'NONE',  #237 ) ;
#76 = PERSON_AND_ORGANIZATION ( #26, #89 ) ;
#77 = AXIS2_PLACEMENT_3D ( 'NONE', #113, #251, #96 ) ;
#78 = DIRECTION ( 'NONE',  ( 0.0000000000000000000, 1.000000000000000000, 0.0000000000000000000 ) ) ;
#79 = DIRECTION ( 'NONE',  ( -3.491481338843133355E-15, 1.224646799147353207E-16, -1.000000000000000000 ) ) ;
#80 = MANIFOLD_SOLID_BREP ( 'Corps-Déplacer/Copier1[1]', #142 ) ;
#81 =( NAMED_UNIT ( * ) SI_UNIT ( $, .STERADIAN. ) SOLID_ANGLE_UNIT ( ) );
#82 = DIRECTION ( 'NONE',  ( 4.275831445896958607E-31, 1.000000000000000000, 1.224646799147353207E-16 ) ) ;
#83 = ORIENTED_EDGE ( 'NONE', *, *, #173, .F. ) ;
#84 = CYLINDRICAL_SURFACE ( 'NONE', #103, 0.4144999999999999241 ) ;
#85 = CC_DESIGN_DATE_AND_TIME_ASSIGNMENT ( #227, #13, ( #228 ) ) ;
#86 = ORIENTED_EDGE ( 'NONE', *, *, #173, .T. ) ;
#87 = ORIENTED_EDGE ( 'NONE', *, *, #139, .T. ) ;
#88 = PRODUCT_DEFINITION ( 'UNKNOWN', '', #185, #217 ) ;
#89 = ORGANIZATION ( 'UNSPECIFIED', 'UNSPECIFIED', '' ) ;
#90 = CONICAL_SURFACE ( 'NONE', #120, 0.4144999999999994245, 0.2617993877991427465 ) ;
#91 = COORDINATED_UNIVERSAL_TIME_OFFSET ( 1, 0, .AHEAD. ) ;
#92 = ORIENTED_EDGE ( 'NONE', *, *, #68, .T. ) ;
#93 = PERSON_AND_ORGANIZATION ( #26, #89 ) ;
#94 = LOCAL_TIME ( 10, 8, 48.00000000000000000, #95 ) ;
#95 = COORDINATED_UNIVERSAL_TIME_OFFSET ( 1, 0, .AHEAD. ) ;
#96 = DIRECTION ( 'NONE',  ( 0.0000000000000000000, 1.000000000000000000, 0.0000000000000000000 ) ) ;
#97 = PERSON_AND_ORGANIZATION ( #26, #89 ) ;
#98 = EDGE_CURVE ( 'NONE', #178, #178, #230, .T. ) ;
#99 = DIRECTION ( 'NONE',  ( 3.491481338843133355E-15, -1.224646799147353207E-16, 1.000000000000000000 ) ) ;
#100 = PERSON_AND_ORGANIZATION ( #26, #89 ) ;
#101 = FACE_OUTER_BOUND ( 'NONE', #65, .T. ) ;
#102 = VERTEX_POINT ( 'NONE', #109 ) ;
#103 = AXIS2_PLACEMENT_3D ( 'NONE', #260, #60, #176 ) ;
#104 = CARTESIAN_POINT ( 'NONE',  ( 1.042207179644675275E-13, 0.7499999999999962252, 29.84999999999999787 ) ) ;
#105 = CC_DESIGN_SECURITY_CLASSIFICATION ( #228, ( #185 ) ) ;
#106 = CIRCLE ( 'NONE', #5, 0.7499999999999998890 ) ;
#107 = CARTESIAN_POINT ( 'NONE',  ( 1.396592535537253342E-14, 0.4144999999999993689, 4.000000000000000000 ) ) ;
#108 = EDGE_LOOP ( 'NONE', ( #283 ) ) ;
#109 = CARTESIAN_POINT ( 'NONE',  ( -4.731839565957903391E-32, 0.2550000000000000044, -1.355252715606880543E-17 ) ) ;
#110 = ORIENTED_EDGE ( 'NONE', *, *, #19, .T. ) ;
#111 = ADVANCED_FACE ( 'NONE', ( #267 ), #71, .F. ) ;
#112 = AXIS2_PLACEMENT_3D ( 'NONE', #151, #256, #124 ) ;
#113 = CARTESIAN_POINT ( 'NONE',  ( 1.396592535537253342E-14, -4.898587196589412829E-16, 4.000000000000000000 ) ) ;
#114 = CARTESIAN_POINT ( 'NONE',  ( 1.396592535537253342E-14, 3.108252149566692065E-33, 4.000000000000000000 ) ) ;
#115 = DATE_AND_TIME ( #232, #193 ) ;
#116 = APPROVAL_PERSON_ORGANIZATION ( #100, #199, #31 ) ;
#117 = DIRECTION ( 'NONE',  ( -3.491481338843133355E-15, 1.224646799147353207E-16, -1.000000000000000000 ) ) ;
#118 = PERSON_AND_ORGANIZATION_ROLE ( 'design_supplier' ) ;
#119 = EDGE_CURVE ( 'NONE', #257, #257, #156, .T. ) ;
#120 = AXIS2_PLACEMENT_3D ( 'NONE', #73, #246, #52 ) ;
#121 = FACE_BOUND ( 'NONE', #261, .T. ) ;
#122 = APPROVAL_ROLE ( '' ) ;
#123 = EDGE_LOOP ( 'NONE', ( #132 ) ) ;
#124 = DIRECTION ( 'NONE',  ( 4.275831445896959482E-31, 1.000000000000000000, 1.224646799147353207E-16 ) ) ;
#125 = VERTEX_POINT ( 'NONE', #219 ) ;
#126 = FACE_OUTER_BOUND ( 'NONE', #201, .T. ) ;
#127 = CC_DESIGN_PERSON_AND_ORGANIZATION_ASSIGNMENT ( #210, #53, ( #185 ) ) ;
#128 = CARTESIAN_POINT ( 'NONE',  ( 1.047444401652940007E-13, -3.673940397442059178E-15, 30.00000000000000000 ) ) ;
#129 = ORIENTED_EDGE ( 'NONE', *, *, #98, .T. ) ;
#130 = AXIS2_PLACEMENT_3D ( 'NONE', #254, #167, #59 ) ;
#131 = FACE_OUTER_BOUND ( 'NONE', #48, .T. ) ;
#132 = ORIENTED_EDGE ( 'NONE', *, *, #119, .T. ) ;
#133 = EDGE_LOOP ( 'NONE', ( #1 ) ) ;
#134 = AXIS2_PLACEMENT_3D ( 'NONE', #147, #117, #14 ) ;
#135 = CALENDAR_DATE ( 2021, 16, 12 ) ;
#136 = CARTESIAN_POINT ( 'NONE',  ( 1.843295982809844969E-14, -6.465411973180453190E-16, 5.279409522551256728 ) ) ;
#137 = APPLICATION_PROTOCOL_DEFINITION ( 'international standard', 'config_control_design', 1994, #41 ) ;
#138 = DIRECTION ( 'NONE',  ( -3.491481338843133355E-15, 1.224646799147353207E-16, -1.000000000000000000 ) ) ;
#139 = EDGE_CURVE ( 'NONE', #125, #125, #35, .T. ) ;
#140 =( GEOMETRIC_REPRESENTATION_CONTEXT ( 3 ) GLOBAL_UNCERTAINTY_ASSIGNED_CONTEXT ( ( #171 ) ) GLOBAL_UNIT_ASSIGNED_CONTEXT ( ( #236, #278, #81 ) ) REPRESENTATION_CONTEXT ( 'NONE', 'WORKASPACE' ) );
#141 = CALENDAR_DATE ( 2021, 16, 12 ) ;
#142 = CLOSED_SHELL ( 'NONE', ( #111, #263, #164, #161, #43, #250, #202 ) ) ;
#143 = DIRECTION ( 'NONE',  ( -3.491481338843133355E-15, 1.224646799147353207E-16, -1.000000000000000000 ) ) ;
#144 = APPROVAL_ROLE ( '' ) ;
#145 = CIRCLE ( 'NONE', #11, 0.4315370868554643802 ) ;
#146 = APPROVAL_DATE_TIME ( #115, #238 ) ;
#147 = CARTESIAN_POINT ( 'NONE',  ( 1.396592535537253342E-14, -4.898587196589412829E-16, 4.000000000000000000 ) ) ;
#148 = VERTEX_POINT ( 'NONE', #107 ) ;
#149 = FACE_OUTER_BOUND ( 'NONE', #224, .T. ) ;
#150 = ADVANCED_FACE ( 'NONE', ( #268, #275 ), #90, .T. ) ;
#151 = CARTESIAN_POINT ( 'NONE',  ( -1.563520975299514869E-31, 5.484093345991461594E-33, -4.478102053432631085E-17 ) ) ;
#152 = EDGE_LOOP ( 'NONE', ( #195 ) ) ;
#153 = PRODUCT ( '303489', '303489', '', ( #273 ) ) ;
#154 = ORIENTED_EDGE ( 'NONE', *, *, #68, .F. ) ;
#155 = AXIS2_PLACEMENT_3D ( 'NONE', #189, #34, #229 ) ;
#156 = CIRCLE ( 'NONE', #21, 0.4144999999999994245 ) ;
#157 = PRODUCT_DEFINITION_SHAPE ( 'NONE', 'NONE',  #88 ) ;
#158 = EDGE_LOOP ( 'NONE', ( #129 ) ) ;
#159 = ORIENTED_EDGE ( 'NONE', *, *, #270, .F. ) ;
#160 = DATE_TIME_ROLE ( 'creation_date' ) ;
#161 = ADVANCED_FACE ( 'NONE', ( #121, #204 ), #196, .T. ) ;
#162 = CARTESIAN_POINT ( 'NONE',  ( 1.798112889504213678E-14, -6.306931015608868610E-16, 5.150000000000000355 ) ) ;
#163 = CALENDAR_DATE ( 2021, 16, 12 ) ;
#164 = ADVANCED_FACE ( 'NONE', ( #274, #169 ), #242, .F. ) ;
#165 = DIRECTION ( 'NONE',  ( -3.491481338843133355E-15, 1.224646799147353207E-16, -1.000000000000000000 ) ) ;
#166 = AXIS2_PLACEMENT_3D ( 'NONE', #174, #79, #82 ) ;
#167 = DIRECTION ( 'NONE',  ( -3.491481338843133355E-15, 1.224646799147353207E-16, -1.000000000000000000 ) ) ;
#168 = DATE_AND_TIME ( #163, #54 ) ;
#169 = FACE_OUTER_BOUND ( 'NONE', #281, .T. ) ;
#170 = DIRECTION ( 'NONE',  ( 3.491481338843133355E-15, -1.224646799147353207E-16, 1.000000000000000000 ) ) ;
#171 = UNCERTAINTY_MEASURE_WITH_UNIT (LENGTH_MEASURE( 1.000000000000000082E-05 ), #236, 'distance_accuracy_value', 'NONE');
#172 = CIRCLE ( 'NONE', #134, 0.4144999999999998685 ) ;
#173 = EDGE_CURVE ( 'NONE', #213, #213, #69, .T. ) ;
#174 = CARTESIAN_POINT ( 'NONE',  ( 0.0000000000000000000, 0.0000000000000000000, 0.0000000000000000000 ) ) ;
#175 = ORIENTED_EDGE ( 'NONE', *, *, #98, .F. ) ;
#176 = DIRECTION ( 'NONE',  ( 4.275831445896958607E-31, 1.000000000000000000, 1.224646799147353207E-16 ) ) ;
#177 = ORIENTED_EDGE ( 'NONE', *, *, #119, .F. ) ;
#178 = VERTEX_POINT ( 'NONE', #40 ) ;
#179 = AXIS2_PLACEMENT_3D ( 'NONE', #215, #170, #46 ) ;
#180 = CC_DESIGN_APPROVAL ( #238, ( #185 ) ) ;
#181 = AXIS2_PLACEMENT_3D ( 'NONE', #162, #143, #78 ) ;
#182 = SHAPE_DEFINITION_REPRESENTATION ( #157, #45 ) ;
#183 = CARTESIAN_POINT ( 'NONE',  ( 1.042207179644675275E-13, -3.655570695454848748E-15, 29.84999999999999787 ) ) ;
#184 = APPLICATION_PROTOCOL_DEFINITION ( 'international standard', 'config_control_design', 1994, #262 ) ;
#185 = PRODUCT_DEFINITION_FORMATION_WITH_SPECIFIED_SOURCE ( 'ANY', '', #153, .NOT_KNOWN. ) ;
#186 = DIRECTION ( 'NONE',  ( 0.0000000000000000000, 1.000000000000000000, 0.0000000000000000000 ) ) ;
#187 = FACE_OUTER_BOUND ( 'NONE', #108, .T. ) ;
#188 = CARTESIAN_POINT ( 'NONE',  ( 2.078346527163516679E-15, -7.289858300812678837E-17, 0.5952621038072497539 ) ) ;
#189 = CARTESIAN_POINT ( 'NONE',  ( 0.0000000000000000000, 0.0000000000000000000, 0.0000000000000000000 ) ) ;
#190 = DIRECTION ( 'NONE',  ( 4.275831445896958607E-31, 1.000000000000000000, 1.224646799147353207E-16 ) ) ;
#191 = AXIS2_PLACEMENT_3D ( 'NONE', #197, #235, #190 ) ;
#192 = ADVANCED_FACE ( 'NONE', ( #187 ), #75, .F. ) ;
#193 = LOCAL_TIME ( 10, 8, 48.00000000000000000, #72 ) ;
#194 = VERTEX_POINT ( 'NONE', #279 ) ;
#195 = ORIENTED_EDGE ( 'NONE', *, *, #10, .F. ) ;
#196 = CONICAL_SURFACE ( 'NONE', #280, 0.7499999999999971134, 0.2617993877991428575 ) ;
#197 = CARTESIAN_POINT ( 'NONE',  ( 1.047444401652940007E-13, 4.499279347985518085E-33, 30.00000000000000000 ) ) ;
#198 = EDGE_LOOP ( 'NONE', ( #175 ) ) ;
#199 = APPROVAL ( #266, 'UNSPECIFIED' ) ;
#200 = EDGE_LOOP ( 'NONE', ( #86 ) ) ;
#201 = EDGE_LOOP ( 'NONE', ( #87 ) ) ;
#202 = ADVANCED_FACE ( 'NONE', ( #101 ), #44, .F. ) ;
#203 = APPROVAL_PERSON_ORGANIZATION ( #76, #61, #144 ) ;
#204 = FACE_OUTER_BOUND ( 'NONE', #158, .T. ) ;
#205 = PERSON_AND_ORGANIZATION ( #26, #89 ) ;
#206 = DIRECTION ( 'NONE',  ( 0.0000000000000000000, -1.000000000000000000, 0.0000000000000000000 ) ) ;
#207 = PERSON_AND_ORGANIZATION ( #26, #89 ) ;
#208 = AXIS2_PLACEMENT_3D ( 'NONE', #114, #12, #58 ) ;
#209 = CARTESIAN_POINT ( 'NONE',  ( 0.0000000000000000000, 0.0000000000000000000, 0.0000000000000000000 ) ) ;
#210 = PERSON_AND_ORGANIZATION ( #26, #89 ) ;
#211 = CYLINDRICAL_SURFACE ( 'NONE', #253, 0.7499999999999984457 ) ;
#212 = FACE_OUTER_BOUND ( 'NONE', #152, .T. ) ;
#213 = VERTEX_POINT ( 'NONE', #22 ) ;
#214 = EDGE_CURVE ( 'NONE', #194, #194, #216, .T. ) ;
#215 = CARTESIAN_POINT ( 'NONE',  ( 1.396592535537253342E-14, 3.108252149566692065E-33, 4.000000000000000000 ) ) ;
#216 = CIRCLE ( 'NONE', #248, 0.6000000000000000888 ) ;
#217 = DESIGN_CONTEXT ( 'detailed design', #41, 'design' ) ;
#218 = FACE_OUTER_BOUND ( 'NONE', #47, .T. ) ;
#219 = CARTESIAN_POINT ( 'NONE',  ( 1.798112889504213678E-14, 0.4144999999999993689, 5.150000000000000355 ) ) ;
#220 = CC_DESIGN_DATE_AND_TIME_ASSIGNMENT ( #252, #160, ( #88 ) ) ;
#221 = LOCAL_TIME ( 10, 8, 48.00000000000000000, #225 ) ;
#222 = ORIENTED_EDGE ( 'NONE', *, *, #10, .T. ) ;
#223 = ADVANCED_FACE ( 'NONE', ( #218, #131 ), #62, .T. ) ;
#224 = EDGE_LOOP ( 'NONE', ( #83 ) ) ;
#225 = COORDINATED_UNIVERSAL_TIME_OFFSET ( 1, 0, .AHEAD. ) ;
#226 = CARTESIAN_POINT ( 'NONE',  ( 2.258265443351737324E-14, -7.920928907906262685E-16, 6.467929294733078649 ) ) ;
#227 = DATE_AND_TIME ( #141, #94 ) ;
#228 = SECURITY_CLASSIFICATION ( '', '', #9 ) ;
#229 = DIRECTION ( 'NONE',  ( 1.000000000000000000, 0.0000000000000000000, 0.0000000000000000000 ) ) ;
#230 = CIRCLE ( 'NONE', #49, 0.7499999999999971134 ) ;
#231 = DIRECTION ( 'NONE',  ( -3.491481338843133355E-15, 1.224646799147353207E-16, -1.000000000000000000 ) ) ;
#232 = CALENDAR_DATE ( 2021, 16, 12 ) ;
#233 = ORIENTED_EDGE ( 'NONE', *, *, #214, .T. ) ;
#234 = VERTEX_POINT ( 'NONE', #239 ) ;
#235 = DIRECTION ( 'NONE',  ( -3.491481338843133355E-15, 1.224646799147353207E-16, -1.000000000000000000 ) ) ;
#236 =( LENGTH_UNIT ( ) NAMED_UNIT ( * ) SI_UNIT ( .MILLI., .METRE. ) );
#237 = AXIS2_PLACEMENT_3D ( 'NONE', #272, #36, #38 ) ;
#238 = APPROVAL ( #30, 'UNSPECIFIED' ) ;
#239 = CARTESIAN_POINT ( 'NONE',  ( 1.843295982809844969E-14, 0.4315370868554637696, 5.279409522551256728 ) ) ;
#240 = EDGE_LOOP ( 'NONE', ( #222 ) ) ;
#241 = ADVANCED_FACE ( 'NONE', ( #39 ), #277, .T. ) ;
#242 = TOROIDAL_SURFACE ( 'NONE', #130, 0.9144999999999999796, 0.5000000000000002220 ) ;
#243 = CC_DESIGN_PERSON_AND_ORGANIZATION_ASSIGNMENT ( #97, #247, ( #88 ) ) ;
#244 = FACE_OUTER_BOUND ( 'NONE', #240, .T. ) ;
#245 = PERSON_AND_ORGANIZATION ( #26, #89 ) ;
#246 = DIRECTION ( 'NONE',  ( 3.491481338843133355E-15, -1.224646799147353207E-16, 1.000000000000000000 ) ) ;
#247 = PERSON_AND_ORGANIZATION_ROLE ( 'creator' ) ;
#248 = AXIS2_PLACEMENT_3D ( 'NONE', #128, #42, #282 ) ;
#249 = DIRECTION ( 'NONE',  ( 0.0000000000000000000, 1.000000000000000000, 0.0000000000000000000 ) ) ;
#250 = ADVANCED_FACE ( 'NONE', ( #212, #20 ), #66, .T. ) ;
#251 = DIRECTION ( 'NONE',  ( -3.491481338843133355E-15, 1.224646799147353207E-16, -1.000000000000000000 ) ) ;
#252 = DATE_AND_TIME ( #7, #221 ) ;
#253 = AXIS2_PLACEMENT_3D ( 'NONE', #209, #55, #6 ) ;
#254 = CARTESIAN_POINT ( 'NONE',  ( 1.798112889504213678E-14, -6.505213034913026604E-16, 5.150000000000000355 ) ) ;
#255 = CARTESIAN_POINT ( 'NONE',  ( 1.047444401652940007E-13, -3.673940397442059178E-15, 30.00000000000000000 ) ) ;
#256 = DIRECTION ( 'NONE',  ( -3.491481338843133355E-15, 1.224646799147353207E-16, -1.000000000000000000 ) ) ;
#257 = VERTEX_POINT ( 'NONE', #64 ) ;
#258 = DIRECTION ( 'NONE',  ( 0.0000000000000000000, 1.000000000000000000, 0.0000000000000000000 ) ) ;
#259 = EDGE_LOOP ( 'NONE', ( #159 ) ) ;
#260 = CARTESIAN_POINT ( 'NONE',  ( 0.0000000000000000000, 0.0000000000000000000, 0.0000000000000000000 ) ) ;
#261 = EDGE_LOOP ( 'NONE', ( #154 ) ) ;
#262 = APPLICATION_CONTEXT ( 'configuration controlled 3d designs of mechanical parts and assemblies' ) ;
#263 = ADVANCED_FACE ( 'NONE', ( #149, #126 ), #84, .T. ) ;
#264 = CIRCLE ( 'NONE', #112, 0.2550000000000000044 ) ;
#265 = ORIENTED_EDGE ( 'NONE', *, *, #214, .F. ) ;
#266 = APPROVAL_STATUS ( 'not_yet_approved' ) ;
#267 = FACE_OUTER_BOUND ( 'NONE', #200, .T. ) ;
#268 = FACE_BOUND ( 'NONE', #259, .T. ) ;
#269 = PERSON_AND_ORGANIZATION_ROLE ( 'design_owner' ) ;
#270 = EDGE_CURVE ( 'NONE', #102, #102, #264, .T. ) ;
#271 = MANIFOLD_SOLID_BREP ( 'Corps-Déplacer/Copier1[2]', #57 ) ;
#272 = CARTESIAN_POINT ( 'NONE',  ( -7.817604876497574346E-32, 2.742046672995730797E-33, -2.239051026716315543E-17 ) ) ;
#273 = MECHANICAL_CONTEXT ( 'NONE', #262, 'mechanical' ) ;
#274 = FACE_OUTER_BOUND ( 'NONE', #133, .T. ) ;
#275 = FACE_OUTER_BOUND ( 'NONE', #123, .T. ) ;
#276 = COORDINATED_UNIVERSAL_TIME_OFFSET ( 1, 0, .AHEAD. ) ;
#277 = PLANE ( 'NONE',  #179 ) ;
#278 =( NAMED_UNIT ( * ) PLANE_ANGLE_UNIT ( ) SI_UNIT ( $, .RADIAN. ) );
#279 = CARTESIAN_POINT ( 'NONE',  ( 1.047444401652940007E-13, 0.5999999999999963141, 30.00000000000000000 ) ) ;
#280 = AXIS2_PLACEMENT_3D ( 'NONE', #226, #99, #206 ) ;
#281 = EDGE_LOOP ( 'NONE', ( #92 ) ) ;
#282 = DIRECTION ( 'NONE',  ( 0.0000000000000000000, 1.000000000000000000, 0.0000000000000000000 ) ) ;
#283 = ORIENTED_EDGE ( 'NONE', *, *, #270, .T. ) ;
ENDSEC;
END-ISO-10303-21;
