ISO-10303-21;
HEADER;
FILE_DESCRIPTION (( 'STEP AP203' ),
    '1' );
FILE_NAME ('303488.step',
    '2021-12-16T09:08:48',
    ( '' ),
    ( '' ),
    'SwSTEP 2.0',
    'SolidWorks 2019',
    '' );
FILE_SCHEMA (( 'CONFIG_CONTROL_DESIGN' ));
ENDSEC;

DATA;
#1 = FACE_OUTER_BOUND ( 'NONE', #83, .T. ) ;
#2 = DIRECTION ( 'NONE',  ( -4.275831445896958607E-31, -1.000000000000000000, -1.224646799147353207E-16 ) ) ;
#3 =( NAMED_UNIT ( * ) SI_UNIT ( $, .STERADIAN. ) SOLID_ANGLE_UNIT ( ) );
#4 = ORIENTED_EDGE ( 'NONE', *, *, #270, .F. ) ;
#5 = CARTESIAN_POINT ( 'NONE',  ( -3.520454698997178384E-32, 1.234809285877112229E-33, -1.008298300160368183E-17 ) ) ;
#6 = DIRECTION ( 'NONE',  ( 0.0000000000000000000, 1.000000000000000000, 0.0000000000000000000 ) ) ;
#7 = SECURITY_CLASSIFICATION ( '', '', #34 ) ;
#8 = PERSON_AND_ORGANIZATION ( #95, #189 ) ;
#9 = APPROVAL ( #38, 'UNSPECIFIED' ) ;
#10 = APPROVAL_ROLE ( '' ) ;
#11 = AXIS2_PLACEMENT_3D ( 'NONE', #244, #97, #108 ) ;
#12 = COORDINATED_UNIVERSAL_TIME_OFFSET ( 1, 0, .AHEAD. ) ;
#13 = DATE_AND_TIME ( #257, #202 ) ;
#14 = EDGE_CURVE ( 'NONE', #146, #146, #178, .T. ) ;
#15 = CALENDAR_DATE ( 2021, 16, 12 ) ;
#16 = ORIENTED_EDGE ( 'NONE', *, *, #14, .T. ) ;
#17 = EDGE_LOOP ( 'NONE', ( #42 ) ) ;
#18 = EDGE_CURVE ( 'NONE', #261, #261, #140, .T. ) ;
#19 = ORIENTED_EDGE ( 'NONE', *, *, #270, .T. ) ;
#20 = EDGE_LOOP ( 'NONE', ( #215 ) ) ;
#21 = CIRCLE ( 'NONE', #272, 0.3624999999999994893 ) ;
#22 = PRODUCT ( '303488', '303488', '', ( #255 ) ) ;
#23 = CARTESIAN_POINT ( 'NONE',  ( 0.0000000000000000000, 0.0000000000000000000, 0.0000000000000000000 ) ) ;
#24 = EDGE_LOOP ( 'NONE', ( #233 ) ) ;
#25 = EDGE_LOOP ( 'NONE', ( #27 ) ) ;
#26 = DIRECTION ( 'NONE',  ( -3.491481338843133355E-15, 1.224646799147353207E-16, -1.000000000000000000 ) ) ;
#27 = ORIENTED_EDGE ( 'NONE', *, *, #198, .T. ) ;
#28 = CARTESIAN_POINT ( 'NONE',  ( 1.047444401652940007E-13, -3.673940397442059178E-15, 30.00000000000000000 ) ) ;
#29 = DIRECTION ( 'NONE',  ( 4.275831445896958607E-31, 1.000000000000000000, 1.224646799147353454E-16 ) ) ;
#30 = ORIENTED_EDGE ( 'NONE', *, *, #84, .T. ) ;
#31 = CC_DESIGN_SECURITY_CLASSIFICATION ( #7, ( #127 ) ) ;
#32 = ADVANCED_FACE ( 'NONE', ( #1, #171 ), #172, .T. ) ;
#33 = CARTESIAN_POINT ( 'NONE',  ( 1.623538822562057326E-14, -5.421010862427522170E-16, 4.650000000000000355 ) ) ;
#34 = SECURITY_CLASSIFICATION_LEVEL ( 'unclassified' ) ;
#35 = EDGE_CURVE ( 'NONE', #269, #269, #168, .T. ) ;
#36 = PERSON_AND_ORGANIZATION ( #95, #189 ) ;
#37 = AXIS2_PLACEMENT_3D ( 'NONE', #129, #134, #247 ) ;
#38 = APPROVAL_STATUS ( 'not_yet_approved' ) ;
#39 = DIRECTION ( 'NONE',  ( 0.0000000000000000000, 0.0000000000000000000, 1.000000000000000000 ) ) ;
#40 = ADVANCED_FACE ( 'NONE', ( #74 ), #177, .T. ) ;
#41 = AXIS2_PLACEMENT_3D ( 'NONE', #28, #199, #6 ) ;
#42 = ORIENTED_EDGE ( 'NONE', *, *, #144, .F. ) ;
#43 = DIRECTION ( 'NONE',  ( -3.491481338843133355E-15, 1.224646799147353207E-16, -1.000000000000000000 ) ) ;
#44 = EDGE_LOOP ( 'NONE', ( #209 ) ) ;
#45 = CONICAL_SURFACE ( 'NONE', #67, 0.3624999999999994893, 0.2617993877991428575 ) ;
#46 = FACE_OUTER_BOUND ( 'NONE', #192, .T. ) ;
#47 = ORIENTED_EDGE ( 'NONE', *, *, #210, .F. ) ;
#48 = FACE_OUTER_BOUND ( 'NONE', #224, .T. ) ;
#49 = CARTESIAN_POINT ( 'NONE',  ( 1.047444401652940007E-13, 4.499279347985518085E-33, 30.00000000000000000 ) ) ;
#50 = CARTESIAN_POINT ( 'NONE',  ( 1.396592535537253342E-14, 0.3624999999999994338, 4.000000000000000000 ) ) ;
#51 = DIRECTION ( 'NONE',  ( -4.275831445896958607E-31, -1.000000000000000000, -1.224646799147353207E-16 ) ) ;
#52 = DIRECTION ( 'NONE',  ( 0.0000000000000000000, 1.000000000000000000, 0.0000000000000000000 ) ) ;
#53 = EDGE_LOOP ( 'NONE', ( #148 ) ) ;
#54 = CARTESIAN_POINT ( 'NONE',  ( 2.151449382310836121E-14, 0.7499999999999963363, 6.161995936726664347 ) ) ;
#55 = AXIS2_PLACEMENT_3D ( 'NONE', #23, #147, #71 ) ;
#56 = DATE_TIME_ROLE ( 'classification_date' ) ;
#57 = PERSON_AND_ORGANIZATION ( #95, #189 ) ;
#58 = DATE_AND_TIME ( #143, #66 ) ;
#59 = PERSON_AND_ORGANIZATION_ROLE ( 'creator' ) ;
#60 = COORDINATED_UNIVERSAL_TIME_OFFSET ( 1, 0, .AHEAD. ) ;
#61 = CC_DESIGN_DATE_AND_TIME_ASSIGNMENT ( #249, #56, ( #7 ) ) ;
#62 = UNCERTAINTY_MEASURE_WITH_UNIT (LENGTH_MEASURE( 1.000000000000000082E-05 ), #188, 'distance_accuracy_value', 'NONE');
#63 = DIRECTION ( 'NONE',  ( 0.0000000000000000000, 1.000000000000000000, 0.0000000000000000000 ) ) ;
#64 = FACE_OUTER_BOUND ( 'NONE', #25, .T. ) ;
#65 = ORIENTED_EDGE ( 'NONE', *, *, #84, .F. ) ;
#66 = LOCAL_TIME ( 10, 8, 48.00000000000000000, #60 ) ;
#67 = AXIS2_PLACEMENT_3D ( 'NONE', #240, #130, #194 ) ;
#68 = FACE_OUTER_BOUND ( 'NONE', #98, .T. ) ;
#69 = APPLICATION_CONTEXT ( 'configuration controlled 3d designs of mechanical parts and assemblies' ) ;
#70 = DIRECTION ( 'NONE',  ( -3.491481338843133355E-15, 1.224646799147353207E-16, -1.000000000000000000 ) ) ;
#71 = DIRECTION ( 'NONE',  ( 4.275831445896958607E-31, 1.000000000000000000, 1.224646799147353454E-16 ) ) ;
#72 = CARTESIAN_POINT ( 'NONE',  ( 1.396592535537253342E-14, 2.718314606074609388E-33, 4.000000000000000000 ) ) ;
#73 = ADVANCED_FACE ( 'NONE', ( #222 ), #116, .F. ) ;
#74 = FACE_OUTER_BOUND ( 'NONE', #53, .T. ) ;
#75 = EDGE_LOOP ( 'NONE', ( #266 ) ) ;
#76 = FACE_OUTER_BOUND ( 'NONE', #133, .T. ) ;
#77 = CARTESIAN_POINT ( 'NONE',  ( 1.856829969409410848E-15, 0.3624999999999994338, 0.5318172400785772247 ) ) ;
#78 = CALENDAR_DATE ( 2021, 16, 12 ) ;
#79 = PERSON_AND_ORGANIZATION_ROLE ( 'classification_officer' ) ;
#80 = CC_DESIGN_APPROVAL ( #264, ( #220 ) ) ;
#81 = CIRCLE ( 'NONE', #196, 0.3795370868554653332 ) ;
#82 = CC_DESIGN_PERSON_AND_ORGANIZATION_ASSIGNMENT ( #185, #59, ( #220 ) ) ;
#83 = EDGE_LOOP ( 'NONE', ( #154 ) ) ;
#84 = EDGE_CURVE ( 'NONE', #132, #132, #280, .T. ) ;
#85 = FACE_OUTER_BOUND ( 'NONE', #165, .T. ) ;
#86 = MANIFOLD_SOLID_BREP ( 'Corps-Déplacer/Copier1[2]', #100 ) ;
#87 = VERTEX_POINT ( 'NONE', #77 ) ;
#88 = PLANE ( 'NONE',  #203 ) ;
#89 = FACE_BOUND ( 'NONE', #75, .T. ) ;
#90 = AXIS2_PLACEMENT_3D ( 'NONE', #213, #225, #191 ) ;
#91 = APPLICATION_CONTEXT ( 'configuration controlled 3d designs of mechanical parts and assemblies' ) ;
#92 = FACE_BOUND ( 'NONE', #24, .T. ) ;
#93 = EDGE_CURVE ( 'NONE', #87, #87, #21, .T. ) ;
#94 = DIRECTION ( 'NONE',  ( 3.491481338843133355E-15, -1.224646799147353207E-16, 1.000000000000000000 ) ) ;
#95 = PERSON ( 'UNSPECIFIED', 'UNSPECIFIED', 'UNSPECIFIED', ('UNSPECIFIED'), ('UNSPECIFIED'), ('UNSPECIFIED') ) ;
#96 = FACE_OUTER_BOUND ( 'NONE', #190, .T. ) ;
#97 = DIRECTION ( 'NONE',  ( -3.491481338843133355E-15, 1.224646799147353207E-16, -1.000000000000000000 ) ) ;
#98 = EDGE_LOOP ( 'NONE', ( #115 ) ) ;
#99 = DIRECTION ( 'NONE',  ( 3.491481338843133355E-15, -1.224646799147353207E-16, 1.000000000000000000 ) ) ;
#100 = CLOSED_SHELL ( 'NONE', ( #114, #162, #32, #40 ) ) ;
#101 = DATE_AND_TIME ( #206, #117 ) ;
#102 = AXIS2_PLACEMENT_3D ( 'NONE', #72, #155, #51 ) ;
#103 = AXIS2_PLACEMENT_3D ( 'NONE', #241, #94, #153 ) ;
#104 = EDGE_LOOP ( 'NONE', ( #30 ) ) ;
#105 = APPROVAL_PERSON_ORGANIZATION ( #36, #229, #122 ) ;
#106 = CYLINDRICAL_SURFACE ( 'NONE', #186, 0.3624999999999999889 ) ;
#107 = VERTEX_POINT ( 'NONE', #110 ) ;
#108 = DIRECTION ( 'NONE',  ( 0.0000000000000000000, 1.000000000000000000, 0.0000000000000000000 ) ) ;
#109 = CC_DESIGN_PERSON_AND_ORGANIZATION_ASSIGNMENT ( #8, #79, ( #7 ) ) ;
#110 = CARTESIAN_POINT ( 'NONE',  ( 1.047444401652940007E-13, 0.5999999999999963141, 30.00000000000000000 ) ) ;
#111 = DIRECTION ( 'NONE',  ( 0.0000000000000000000, 1.000000000000000000, 0.0000000000000000000 ) ) ;
#112 = DIRECTION ( 'NONE',  ( -3.491481338843133355E-15, 1.224646799147353207E-16, -1.000000000000000000 ) ) ;
#113 = ORIENTED_EDGE ( 'NONE', *, *, #198, .F. ) ;
#114 = ADVANCED_FACE ( 'NONE', ( #283 ), #88, .F. ) ;
#115 = ORIENTED_EDGE ( 'NONE', *, *, #210, .T. ) ;
#116 = PLANE ( 'NONE',  #121 ) ;
#117 = LOCAL_TIME ( 10, 8, 48.00000000000000000, #12 ) ;
#118 = DATE_TIME_ROLE ( 'creation_date' ) ;
#119 = APPROVAL_STATUS ( 'not_yet_approved' ) ;
#120 = ADVANCED_FACE ( 'NONE', ( #175 ), #223, .F. ) ;
#121 = AXIS2_PLACEMENT_3D ( 'NONE', #49, #200, #131 ) ;
#122 = APPROVAL_ROLE ( '' ) ;
#123 = APPLICATION_PROTOCOL_DEFINITION ( 'international standard', 'config_control_design', 1994, #69 ) ;
#124 = CONICAL_SURFACE ( 'NONE', #211, 0.6000000000000000888, 0.7853981633974450594 ) ;
#125 = ADVANCED_BREP_SHAPE_REPRESENTATION ( '303488', ( #180, #86, #214 ), #231 ) ;
#126 = DIRECTION ( 'NONE',  ( 4.275831445896957731E-31, 1.000000000000000000, 1.224646799147352961E-16 ) ) ;
#127 = PRODUCT_DEFINITION_FORMATION_WITH_SPECIFIED_SOURCE ( 'ANY', '', #22, .NOT_KNOWN. ) ;
#128 = DIRECTION ( 'NONE',  ( 0.0000000000000000000, 1.000000000000000000, 0.0000000000000000000 ) ) ;
#129 = CARTESIAN_POINT ( 'NONE',  ( 1.042207179644675275E-13, -3.655570695454848748E-15, 29.84999999999999787 ) ) ;
#130 = DIRECTION ( 'NONE',  ( 3.491481338843133355E-15, -1.224646799147353207E-16, 1.000000000000000000 ) ) ;
#131 = DIRECTION ( 'NONE',  ( 4.275831445896958607E-31, 1.000000000000000000, 1.224646799147353207E-16 ) ) ;
#132 = VERTEX_POINT ( 'NONE', #236 ) ;
#133 = EDGE_LOOP ( 'NONE', ( #19 ) ) ;
#134 = DIRECTION ( 'NONE',  ( -3.491481338843133355E-15, 1.224646799147353207E-16, -1.000000000000000000 ) ) ;
#135 = CARTESIAN_POINT ( 'NONE',  ( 0.0000000000000000000, 0.0000000000000000000, 0.0000000000000000000 ) ) ;
#136 = AXIS2_PLACEMENT_3D ( 'NONE', #150, #43, #174 ) ;
#137 = CC_DESIGN_DATE_AND_TIME_ASSIGNMENT ( #58, #118, ( #220 ) ) ;
#138 = PERSON_AND_ORGANIZATION ( #95, #189 ) ;
#139 = APPROVAL_DATE_TIME ( #13, #264 ) ;
#140 = CIRCLE ( 'NONE', #11, 0.3624999999999999334 ) ;
#141 = CC_DESIGN_APPROVAL ( #9, ( #127 ) ) ;
#142 = ORIENTED_EDGE ( 'NONE', *, *, #93, .T. ) ;
#143 = CALENDAR_DATE ( 2021, 16, 12 ) ;
#144 = EDGE_CURVE ( 'NONE', #107, #107, #238, .T. ) ;
#145 = DESIGN_CONTEXT ( 'detailed design', #91, 'design' ) ;
#146 = VERTEX_POINT ( 'NONE', #282 ) ;
#147 = DIRECTION ( 'NONE',  ( -3.491481338843133355E-15, 1.224646799147353207E-16, -1.000000000000000000 ) ) ;
#148 = ORIENTED_EDGE ( 'NONE', *, *, #18, .F. ) ;
#149 = LOCAL_TIME ( 10, 8, 48.00000000000000000, #234 ) ;
#150 = CARTESIAN_POINT ( 'NONE',  ( 1.623538822562057326E-14, -5.694607616035192869E-16, 4.650000000000000355 ) ) ;
#151 = DIRECTION ( 'NONE',  ( 4.275831445896958607E-31, 1.000000000000000000, 1.224646799147353207E-16 ) ) ;
#152 = FACE_OUTER_BOUND ( 'NONE', #20, .T. ) ;
#153 = DIRECTION ( 'NONE',  ( -4.275831445896958607E-31, -1.000000000000000000, -1.224646799147353207E-16 ) ) ;
#154 = ORIENTED_EDGE ( 'NONE', *, *, #93, .F. ) ;
#155 = DIRECTION ( 'NONE',  ( 3.491481338843133355E-15, -1.224646799147353207E-16, 1.000000000000000000 ) ) ;
#156 = CARTESIAN_POINT ( 'NONE',  ( 2.365919782978951696E-32, 0.2199999999999999734, 6.776263578034402713E-18 ) ) ;
#157 = CC_DESIGN_PERSON_AND_ORGANIZATION_ASSIGNMENT ( #232, #204, ( #127 ) ) ;
#158 = DATE_AND_TIME ( #15, #149 ) ;
#159 = CONICAL_SURFACE ( 'NONE', #279, 0.7499999999999971134, 0.2617993877991425800 ) ;
#160 = CARTESIAN_POINT ( 'NONE',  ( 0.0000000000000000000, 0.0000000000000000000, 0.0000000000000000000 ) ) ;
#161 = ADVANCED_FACE ( 'NONE', ( #274, #76 ), #159, .T. ) ;
#162 = ADVANCED_FACE ( 'NONE', ( #92, #48 ), #45, .T. ) ;
#163 = PERSON_AND_ORGANIZATION ( #95, #189 ) ;
#164 = LOCAL_TIME ( 10, 8, 48.00000000000000000, #276 ) ;
#165 = EDGE_LOOP ( 'NONE', ( #65 ) ) ;
#166 = DIRECTION ( 'NONE',  ( 1.000000000000000000, 0.0000000000000000000, 0.0000000000000000000 ) ) ;
#167 = ADVANCED_FACE ( 'NONE', ( #46, #64 ), #226, .F. ) ;
#168 = CIRCLE ( 'NONE', #245, 0.2199999999999999734 ) ;
#169 = FACE_OUTER_BOUND ( 'NONE', #104, .T. ) ;
#170 = VERTEX_POINT ( 'NONE', #216 ) ;
#171 = FACE_OUTER_BOUND ( 'NONE', #262, .T. ) ;
#172 = CYLINDRICAL_SURFACE ( 'NONE', #205, 0.3624999999999997113 ) ;
#173 = CIRCLE ( 'NONE', #90, 0.7499999999999971134 ) ;
#174 = DIRECTION ( 'NONE',  ( 0.0000000000000000000, 1.000000000000000000, 0.0000000000000000000 ) ) ;
#175 = FACE_OUTER_BOUND ( 'NONE', #195, .T. ) ;
#176 = VERTEX_POINT ( 'NONE', #54 ) ;
#177 = PLANE ( 'NONE',  #103 ) ;
#178 = CIRCLE ( 'NONE', #230, 0.3624999999999999334 ) ;
#179 = CARTESIAN_POINT ( 'NONE',  ( 1.396592535537253342E-14, -4.898587196589412829E-16, 4.000000000000000000 ) ) ;
#180 = MANIFOLD_SOLID_BREP ( 'Corps-Déplacer/Copier1[1]', #258 ) ;
#181 = DIRECTION ( 'NONE',  ( 0.0000000000000000000, -1.000000000000000000, 0.0000000000000000000 ) ) ;
#182 = APPLICATION_PROTOCOL_DEFINITION ( 'international standard', 'config_control_design', 1994, #91 ) ;
#183 = APPROVAL_STATUS ( 'not_yet_approved' ) ;
#184 = APPROVAL_DATE_TIME ( #101, #229 ) ;
#185 = PERSON_AND_ORGANIZATION ( #95, #189 ) ;
#186 = AXIS2_PLACEMENT_3D ( 'NONE', #243, #26, #126 ) ;
#187 = CC_DESIGN_PERSON_AND_ORGANIZATION_ASSIGNMENT ( #138, #228, ( #127 ) ) ;
#188 =( LENGTH_UNIT ( ) NAMED_UNIT ( * ) SI_UNIT ( .MILLI., .METRE. ) );
#189 = ORGANIZATION ( 'UNSPECIFIED', 'UNSPECIFIED', '' ) ;
#190 = EDGE_LOOP ( 'NONE', ( #4 ) ) ;
#191 = DIRECTION ( 'NONE',  ( 0.0000000000000000000, 1.000000000000000000, 0.0000000000000000000 ) ) ;
#192 = EDGE_LOOP ( 'NONE', ( #47 ) ) ;
#193 = EDGE_LOOP ( 'NONE', ( #113 ) ) ;
#194 = DIRECTION ( 'NONE',  ( 0.0000000000000000000, -1.000000000000000000, 0.0000000000000000000 ) ) ;
#195 = EDGE_LOOP ( 'NONE', ( #16 ) ) ;
#196 = AXIS2_PLACEMENT_3D ( 'NONE', #218, #263, #128 ) ;
#197 =( NAMED_UNIT ( * ) PLANE_ANGLE_UNIT ( ) SI_UNIT ( $, .RADIAN. ) );
#198 = EDGE_CURVE ( 'NONE', #170, #170, #81, .T. ) ;
#199 = DIRECTION ( 'NONE',  ( -3.491481338843133355E-15, 1.224646799147353207E-16, -1.000000000000000000 ) ) ;
#200 = DIRECTION ( 'NONE',  ( -3.491481338843133355E-15, 1.224646799147353207E-16, -1.000000000000000000 ) ) ;
#201 = CARTESIAN_POINT ( 'NONE',  ( 2.151449382310836121E-14, -7.546268600271305740E-16, 6.161995936726664347 ) ) ;
#202 = LOCAL_TIME ( 10, 8, 48.00000000000000000, #277 ) ;
#203 = AXIS2_PLACEMENT_3D ( 'NONE', #5, #273, #2 ) ;
#204 = PERSON_AND_ORGANIZATION_ROLE ( 'creator' ) ;
#205 = AXIS2_PLACEMENT_3D ( 'NONE', #135, #70, #29 ) ;
#206 = CALENDAR_DATE ( 2021, 16, 12 ) ;
#207 = PERSON_AND_ORGANIZATION_ROLE ( 'design_owner' ) ;
#208 = APPROVAL_ROLE ( '' ) ;
#209 = ORIENTED_EDGE ( 'NONE', *, *, #35, .T. ) ;
#210 = EDGE_CURVE ( 'NONE', #248, #248, #250, .T. ) ;
#211 = AXIS2_PLACEMENT_3D ( 'NONE', #259, #112, #63 ) ;
#212 = ADVANCED_FACE ( 'NONE', ( #96, #169 ), #235, .T. ) ;
#213 = CARTESIAN_POINT ( 'NONE',  ( 2.151449382310836121E-14, -7.546268600271305740E-16, 6.161995936726664347 ) ) ;
#214 = AXIS2_PLACEMENT_3D ( 'NONE', #160, #39, #166 ) ;
#215 = ORIENTED_EDGE ( 'NONE', *, *, #14, .F. ) ;
#216 = CARTESIAN_POINT ( 'NONE',  ( 1.668721915867688301E-14, 0.3795370868554647781, 4.779409522551257616 ) ) ;
#217 = ORIENTED_EDGE ( 'NONE', *, *, #18, .T. ) ;
#218 = CARTESIAN_POINT ( 'NONE',  ( 1.668721915867688301E-14, -5.853088573606777450E-16, 4.779409522551257616 ) ) ;
#219 = CARTESIAN_POINT ( 'NONE',  ( 1.856829969409410848E-15, -6.512882807936090763E-17, 0.5318172400785772247 ) ) ;
#220 = PRODUCT_DEFINITION ( 'UNKNOWN', '', #127, #145 ) ;
#221 = CARTESIAN_POINT ( 'NONE',  ( 1.623538822562057326E-14, 0.3624999999999994338, 4.650000000000000355 ) ) ;
#222 = FACE_OUTER_BOUND ( 'NONE', #17, .T. ) ;
#223 = PLANE ( 'NONE',  #102 ) ;
#224 = EDGE_LOOP ( 'NONE', ( #142 ) ) ;
#225 = DIRECTION ( 'NONE',  ( -3.491481338843133355E-15, 1.224646799147353207E-16, -1.000000000000000000 ) ) ;
#226 = TOROIDAL_SURFACE ( 'NONE', #265, 0.8624999999999998224, 0.4999999999999998890 ) ;
#227 = PERSON_AND_ORGANIZATION ( #95, #189 ) ;
#228 = PERSON_AND_ORGANIZATION_ROLE ( 'design_supplier' ) ;
#229 = APPROVAL ( #119, 'UNSPECIFIED' ) ;
#230 = AXIS2_PLACEMENT_3D ( 'NONE', #179, #239, #111 ) ;
#231 =( GEOMETRIC_REPRESENTATION_CONTEXT ( 3 ) GLOBAL_UNCERTAINTY_ASSIGNED_CONTEXT ( ( #62 ) ) GLOBAL_UNIT_ASSIGNED_CONTEXT ( ( #188, #197, #3 ) ) REPRESENTATION_CONTEXT ( 'NONE', 'WORKASPACE' ) );
#232 = PERSON_AND_ORGANIZATION ( #95, #189 ) ;
#233 = ORIENTED_EDGE ( 'NONE', *, *, #35, .F. ) ;
#234 = COORDINATED_UNIVERSAL_TIME_OFFSET ( 1, 0, .AHEAD. ) ;
#235 = CYLINDRICAL_SURFACE ( 'NONE', #55, 0.7499999999999984457 ) ;
#236 = CARTESIAN_POINT ( 'NONE',  ( 1.042207179644675275E-13, 0.7499999999999962252, 29.84999999999999787 ) ) ;
#237 = APPROVAL_PERSON_ORGANIZATION ( #57, #9, #10 ) ;
#238 = CIRCLE ( 'NONE', #41, 0.6000000000000000888 ) ;
#239 = DIRECTION ( 'NONE',  ( -3.491481338843133355E-15, 1.224646799147353207E-16, -1.000000000000000000 ) ) ;
#240 = CARTESIAN_POINT ( 'NONE',  ( 1.856829969409410848E-15, -6.512882807936090763E-17, 0.5318172400785772247 ) ) ;
#241 = CARTESIAN_POINT ( 'NONE',  ( 1.396592535537253342E-14, 2.718314606074609388E-33, 4.000000000000000000 ) ) ;
#242 = ADVANCED_FACE ( 'NONE', ( #85, #89 ), #124, .T. ) ;
#243 = CARTESIAN_POINT ( 'NONE',  ( 0.0000000000000000000, 0.0000000000000000000, 0.0000000000000000000 ) ) ;
#244 = CARTESIAN_POINT ( 'NONE',  ( 1.396592535537253342E-14, -4.898587196589412829E-16, 4.000000000000000000 ) ) ;
#245 = AXIS2_PLACEMENT_3D ( 'NONE', #268, #271, #151 ) ;
#246 = DIRECTION ( 'NONE',  ( -3.491481338843133355E-15, 1.224646799147353207E-16, -1.000000000000000000 ) ) ;
#247 = DIRECTION ( 'NONE',  ( 0.0000000000000000000, 1.000000000000000000, 0.0000000000000000000 ) ) ;
#248 = VERTEX_POINT ( 'NONE', #221 ) ;
#249 = DATE_AND_TIME ( #78, #164 ) ;
#250 = CIRCLE ( 'NONE', #136, 0.3625000000000000444 ) ;
#251 = PRODUCT_RELATED_PRODUCT_CATEGORY ( 'detail', '', ( #22 ) ) ;
#252 = ADVANCED_FACE ( 'NONE', ( #152, #68 ), #106, .T. ) ;
#253 = APPROVAL_DATE_TIME ( #158, #9 ) ;
#254 = SHAPE_DEFINITION_REPRESENTATION ( #260, #125 ) ;
#255 = MECHANICAL_CONTEXT ( 'NONE', #69, 'mechanical' ) ;
#256 = APPROVAL_PERSON_ORGANIZATION ( #227, #264, #208 ) ;
#257 = CALENDAR_DATE ( 2021, 16, 12 ) ;
#258 = CLOSED_SHELL ( 'NONE', ( #120, #252, #167, #161, #212, #242, #73 ) ) ;
#259 = CARTESIAN_POINT ( 'NONE',  ( 1.047444401652940007E-13, -3.673940397442059178E-15, 30.00000000000000000 ) ) ;
#260 = PRODUCT_DEFINITION_SHAPE ( 'NONE', 'NONE',  #220 ) ;
#261 = VERTEX_POINT ( 'NONE', #50 ) ;
#262 = EDGE_LOOP ( 'NONE', ( #217 ) ) ;
#263 = DIRECTION ( 'NONE',  ( -3.491481338843133355E-15, 1.224646799147353207E-16, -1.000000000000000000 ) ) ;
#264 = APPROVAL ( #183, 'UNSPECIFIED' ) ;
#265 = AXIS2_PLACEMENT_3D ( 'NONE', #33, #267, #281 ) ;
#266 = ORIENTED_EDGE ( 'NONE', *, *, #144, .T. ) ;
#267 = DIRECTION ( 'NONE',  ( -3.491481338843133355E-15, 1.224646799147353207E-16, -1.000000000000000000 ) ) ;
#268 = CARTESIAN_POINT ( 'NONE',  ( -7.040909397994356768E-32, 2.469618571754224458E-33, -2.016596600320736365E-17 ) ) ;
#269 = VERTEX_POINT ( 'NONE', #156 ) ;
#270 = EDGE_CURVE ( 'NONE', #176, #176, #173, .T. ) ;
#271 = DIRECTION ( 'NONE',  ( -3.491481338843133355E-15, 1.224646799147353207E-16, -1.000000000000000000 ) ) ;
#272 = AXIS2_PLACEMENT_3D ( 'NONE', #219, #246, #52 ) ;
#273 = DIRECTION ( 'NONE',  ( 3.491481338843133355E-15, -1.224646799147353207E-16, 1.000000000000000000 ) ) ;
#274 = FACE_BOUND ( 'NONE', #193, .T. ) ;
#275 = CC_DESIGN_PERSON_AND_ORGANIZATION_ASSIGNMENT ( #163, #207, ( #22 ) ) ;
#276 = COORDINATED_UNIVERSAL_TIME_OFFSET ( 1, 0, .AHEAD. ) ;
#277 = COORDINATED_UNIVERSAL_TIME_OFFSET ( 1, 0, .AHEAD. ) ;
#278 = CC_DESIGN_APPROVAL ( #229, ( #7 ) ) ;
#279 = AXIS2_PLACEMENT_3D ( 'NONE', #201, #99, #181 ) ;
#280 = CIRCLE ( 'NONE', #37, 0.7499999999999998890 ) ;
#281 = DIRECTION ( 'NONE',  ( 4.275831445896958607E-31, 1.000000000000000000, 1.224646799147353207E-16 ) ) ;
#282 = CARTESIAN_POINT ( 'NONE',  ( 1.396592535537253342E-14, 0.3624999999999994338, 4.000000000000000000 ) ) ;
#283 = FACE_OUTER_BOUND ( 'NONE', #44, .T. ) ;
ENDSEC;
END-ISO-10303-21;
