ISO-10303-21;
HEADER;
FILE_DESCRIPTION (( 'STEP AP203' ),
    '1' );
FILE_NAME ('303487.step',
    '2021-12-16T09:08:47',
    ( '' ),
    ( '' ),
    'SwSTEP 2.0',
    'SolidWorks 2019',
    '' );
FILE_SCHEMA (( 'CONFIG_CONTROL_DESIGN' ));
ENDSEC;

DATA;
#1 =( NAMED_UNIT ( * ) PLANE_ANGLE_UNIT ( ) SI_UNIT ( $, .RADIAN. ) );
#2 = ADVANCED_FACE ( 'NONE', ( #17 ), #188, .T. ) ;
#3 = CARTESIAN_POINT ( 'NONE',  ( 2.218555868924579945E-14, 0.7499999999999963363, 6.354196553316465490 ) ) ;
#4 = DIRECTION ( 'NONE',  ( -4.275831445896958607E-31, -1.000000000000000000, -1.224646799147353207E-16 ) ) ;
#5 = PERSON_AND_ORGANIZATION_ROLE ( 'creator' ) ;
#6 = CALENDAR_DATE ( 2021, 16, 12 ) ;
#7 = SECURITY_CLASSIFICATION ( '', '', #273 ) ;
#8 = CIRCLE ( 'NONE', #225, 0.6000000000000000888 ) ;
#9 = MANIFOLD_SOLID_BREP ( 'Corps-Déplacer/Copier1[2]', #14 ) ;
#10 = DIRECTION ( 'NONE',  ( 1.000000000000000000, 0.0000000000000000000, 0.0000000000000000000 ) ) ;
#11 = EDGE_LOOP ( 'NONE', ( #94 ) ) ;
#12 = ORIENTED_EDGE ( 'NONE', *, *, #263, .T. ) ;
#13 = CC_DESIGN_APPROVAL ( #46, ( #63 ) ) ;
#14 = CLOSED_SHELL ( 'NONE', ( #35, #187, #136, #2 ) ) ;
#15 = DIRECTION ( 'NONE',  ( 0.0000000000000000000, 1.000000000000000000, 0.0000000000000000000 ) ) ;
#16 = EDGE_CURVE ( 'NONE', #240, #240, #174, .T. ) ;
#17 = FACE_OUTER_BOUND ( 'NONE', #241, .T. ) ;
#18 = CARTESIAN_POINT ( 'NONE',  ( -5.758159964225271726E-32, 2.019690636955667997E-33, -1.649202560576531217E-17 ) ) ;
#19 = DIRECTION ( 'NONE',  ( -3.491481338843133355E-15, 1.224646799147353207E-16, -1.000000000000000000 ) ) ;
#20 = CARTESIAN_POINT ( 'NONE',  ( 1.047444401652940007E-13, -3.673940397442059178E-15, 30.00000000000000000 ) ) ;
#21 = PRODUCT_DEFINITION ( 'UNKNOWN', '', #63, #26 ) ;
#22 = VERTEX_POINT ( 'NONE', #189 ) ;
#23 = VERTEX_POINT ( 'NONE', #3 ) ;
#24 = CARTESIAN_POINT ( 'NONE',  ( 0.0000000000000000000, 0.0000000000000000000, 0.0000000000000000000 ) ) ;
#25 = EDGE_CURVE ( 'NONE', #68, #68, #70, .T. ) ;
#26 = DESIGN_CONTEXT ( 'detailed design', #227, 'design' ) ;
#27 = CARTESIAN_POINT ( 'NONE',  ( 1.396592535537253342E-14, -4.898587196589412829E-16, 4.000000000000000000 ) ) ;
#28 = DATE_AND_TIME ( #72, #45 ) ;
#29 = PERSON_AND_ORGANIZATION ( #258, #218 ) ;
#30 = DATE_AND_TIME ( #128, #54 ) ;
#31 = AXIS2_PLACEMENT_3D ( 'NONE', #261, #47, #4 ) ;
#32 = CONICAL_SURFACE ( 'NONE', #40, 0.3109999999999996101, 0.2617993877991426910 ) ;
#33 = EDGE_LOOP ( 'NONE', ( #150 ) ) ;
#34 = SHAPE_DEFINITION_REPRESENTATION ( #113, #238 ) ;
#35 = ADVANCED_FACE ( 'NONE', ( #163 ), #84, .F. ) ;
#36 = CARTESIAN_POINT ( 'NONE',  ( 2.218555868924579945E-14, -7.781646470172154088E-16, 6.354196553316465490 ) ) ;
#37 = CARTESIAN_POINT ( 'NONE',  ( 1.576676675779219665E-15, -5.530237331650998504E-17, 0.4515781477158446466 ) ) ;
#38 = PRODUCT_RELATED_PRODUCT_CATEGORY ( 'detail', '', ( #135 ) ) ;
#39 = DIRECTION ( 'NONE',  ( 3.491481338843133355E-15, -1.224646799147353207E-16, 1.000000000000000000 ) ) ;
#40 = AXIS2_PLACEMENT_3D ( 'NONE', #37, #185, #162 ) ;
#41 = DIRECTION ( 'NONE',  ( 0.0000000000000000000, 1.000000000000000000, 0.0000000000000000000 ) ) ;
#42 = DIRECTION ( 'NONE',  ( -3.491481338843133355E-15, 1.224646799147353207E-16, -1.000000000000000000 ) ) ;
#43 = CARTESIAN_POINT ( 'NONE',  ( 1.396592535537253342E-14, 0.3109999999999995546, 4.000000000000000000 ) ) ;
#44 = ADVANCED_FACE ( 'NONE', ( #120, #210 ), #67, .T. ) ;
#45 = LOCAL_TIME ( 10, 8, 47.00000000000000000, #267 ) ;
#46 = APPROVAL ( #131, 'UNSPECIFIED' ) ;
#47 = DIRECTION ( 'NONE',  ( 3.491481338843133355E-15, -1.224646799147353207E-16, 1.000000000000000000 ) ) ;
#48 = CYLINDRICAL_SURFACE ( 'NONE', #173, 0.3110000000000000542 ) ;
#49 = PERSON_AND_ORGANIZATION ( #258, #218 ) ;
#50 = PERSON_AND_ORGANIZATION_ROLE ( 'creator' ) ;
#51 = EDGE_LOOP ( 'NONE', ( #244 ) ) ;
#52 = COORDINATED_UNIVERSAL_TIME_OFFSET ( 1, 0, .AHEAD. ) ;
#53 = EDGE_CURVE ( 'NONE', #22, #22, #8, .T. ) ;
#54 = LOCAL_TIME ( 10, 8, 47.00000000000000000, #156 ) ;
#55 = EDGE_LOOP ( 'NONE', ( #153 ) ) ;
#56 = PERSON_AND_ORGANIZATION ( #258, #218 ) ;
#57 = FACE_OUTER_BOUND ( 'NONE', #73, .T. ) ;
#58 = CIRCLE ( 'NONE', #272, 0.3109999999999996101 ) ;
#59 = AXIS2_PLACEMENT_3D ( 'NONE', #255, #117, #41 ) ;
#60 = CARTESIAN_POINT ( 'NONE',  ( 1.047444401652940007E-13, -3.673940397442059178E-15, 30.00000000000000000 ) ) ;
#61 = DIRECTION ( 'NONE',  ( 4.275831445896958607E-31, 1.000000000000000000, 1.224646799147353207E-16 ) ) ;
#62 = DIRECTION ( 'NONE',  ( -3.491481338843133355E-15, 1.224646799147353207E-16, -1.000000000000000000 ) ) ;
#63 = PRODUCT_DEFINITION_FORMATION_WITH_SPECIFIED_SOURCE ( 'ANY', '', #135, .NOT_KNOWN. ) ;
#64 = DIRECTION ( 'NONE',  ( -3.491481338843133355E-15, 1.224646799147353207E-16, -1.000000000000000000 ) ) ;
#65 = CARTESIAN_POINT ( 'NONE',  ( 1.042207179644675275E-13, 0.7499999999999962252, 29.84999999999999787 ) ) ;
#66 = CARTESIAN_POINT ( 'NONE',  ( 1.623538822562057326E-14, 0.3109999999999995546, 4.650000000000000355 ) ) ;
#67 = CONICAL_SURFACE ( 'NONE', #161, 0.6000000000000000888, 0.7853981633974450594 ) ;
#68 = VERTEX_POINT ( 'NONE', #239 ) ;
#69 = APPROVAL_DATE_TIME ( #262, #46 ) ;
#70 = CIRCLE ( 'NONE', #228, 0.1900000000000000300 ) ;
#71 = EDGE_LOOP ( 'NONE', ( #12 ) ) ;
#72 = CALENDAR_DATE ( 2021, 16, 12 ) ;
#73 = EDGE_LOOP ( 'NONE', ( #251 ) ) ;
#74 = CC_DESIGN_PERSON_AND_ORGANIZATION_ASSIGNMENT ( #56, #92, ( #7 ) ) ;
#75 = ORIENTED_EDGE ( 'NONE', *, *, #219, .F. ) ;
#76 = APPROVAL_ROLE ( '' ) ;
#77 = CC_DESIGN_SECURITY_CLASSIFICATION ( #7, ( #63 ) ) ;
#78 = ORIENTED_EDGE ( 'NONE', *, *, #181, .F. ) ;
#79 = CARTESIAN_POINT ( 'NONE',  ( 0.0000000000000000000, 0.0000000000000000000, 0.0000000000000000000 ) ) ;
#80 = CC_DESIGN_PERSON_AND_ORGANIZATION_ASSIGNMENT ( #29, #242, ( #135 ) ) ;
#81 = DIRECTION ( 'NONE',  ( -3.491481338843133355E-15, 1.224646799147353207E-16, -1.000000000000000000 ) ) ;
#82 = CARTESIAN_POINT ( 'NONE',  ( 1.623538822562057010E-14, -5.421010862427522170E-16, 4.649999999999999467 ) ) ;
#83 = DIRECTION ( 'NONE',  ( 0.0000000000000000000, 1.000000000000000000, 0.0000000000000000000 ) ) ;
#84 = PLANE ( 'NONE',  #266 ) ;
#85 = CARTESIAN_POINT ( 'NONE',  ( 1.576676675779219862E-15, 0.3109999999999995546, 0.4515781477158447021 ) ) ;
#86 = CIRCLE ( 'NONE', #97, 0.7499999999999971134 ) ;
#87 = EDGE_CURVE ( 'NONE', #23, #23, #86, .T. ) ;
#88 = DIRECTION ( 'NONE',  ( -3.491481338843133355E-15, 1.224646799147353207E-16, -1.000000000000000000 ) ) ;
#89 = MECHANICAL_CONTEXT ( 'NONE', #196, 'mechanical' ) ;
#90 = ORIENTED_EDGE ( 'NONE', *, *, #191, .F. ) ;
#91 = LOCAL_TIME ( 10, 8, 47.00000000000000000, #149 ) ;
#92 = PERSON_AND_ORGANIZATION_ROLE ( 'classification_officer' ) ;
#93 = ADVANCED_FACE ( 'NONE', ( #276, #57 ), #208, .F. ) ;
#94 = ORIENTED_EDGE ( 'NONE', *, *, #53, .F. ) ;
#95 = PERSON_AND_ORGANIZATION ( #258, #218 ) ;
#96 = EDGE_LOOP ( 'NONE', ( #90 ) ) ;
#97 = AXIS2_PLACEMENT_3D ( 'NONE', #234, #100, #143 ) ;
#98 = CC_DESIGN_PERSON_AND_ORGANIZATION_ASSIGNMENT ( #199, #5, ( #21 ) ) ;
#99 = FACE_OUTER_BOUND ( 'NONE', #71, .T. ) ;
#100 = DIRECTION ( 'NONE',  ( -3.491481338843133355E-15, 1.224646799147353207E-16, -1.000000000000000000 ) ) ;
#101 = DIRECTION ( 'NONE',  ( -3.491481338843133355E-15, 1.224646799147353207E-16, -1.000000000000000000 ) ) ;
#102 = CC_DESIGN_DATE_AND_TIME_ASSIGNMENT ( #30, #204, ( #7 ) ) ;
#103 = DIRECTION ( 'NONE',  ( -4.275831445896958607E-31, -1.000000000000000000, -1.224646799147353207E-16 ) ) ;
#104 = DIRECTION ( 'NONE',  ( 0.0000000000000000000, 1.000000000000000000, 0.0000000000000000000 ) ) ;
#105 = DIRECTION ( 'NONE',  ( -3.491481338843133355E-15, 1.224646799147353207E-16, -1.000000000000000000 ) ) ;
#106 = CIRCLE ( 'NONE', #254, 0.3109999999999999987 ) ;
#107 = APPLICATION_PROTOCOL_DEFINITION ( 'international standard', 'config_control_design', 1994, #196 ) ;
#108 = CIRCLE ( 'NONE', #184, 0.3280370868554651209 ) ;
#109 = CYLINDRICAL_SURFACE ( 'NONE', #119, 0.7499999999999984457 ) ;
#110 = CARTESIAN_POINT ( 'NONE',  ( 0.0000000000000000000, 0.0000000000000000000, 0.0000000000000000000 ) ) ;
#111 = DATE_AND_TIME ( #6, #91 ) ;
#112 = COORDINATED_UNIVERSAL_TIME_OFFSET ( 1, 0, .AHEAD. ) ;
#113 = PRODUCT_DEFINITION_SHAPE ( 'NONE', 'NONE',  #21 ) ;
#114 = PERSON_AND_ORGANIZATION_ROLE ( 'design_supplier' ) ;
#115 = AXIS2_PLACEMENT_3D ( 'NONE', #141, #232, #103 ) ;
#116 = CC_DESIGN_PERSON_AND_ORGANIZATION_ASSIGNMENT ( #130, #114, ( #63 ) ) ;
#117 = DIRECTION ( 'NONE',  ( -3.491481338843133355E-15, 1.224646799147353207E-16, -1.000000000000000000 ) ) ;
#118 = FACE_OUTER_BOUND ( 'NONE', #96, .T. ) ;
#119 = AXIS2_PLACEMENT_3D ( 'NONE', #256, #88, #148 ) ;
#120 = FACE_OUTER_BOUND ( 'NONE', #176, .T. ) ;
#121 = DIRECTION ( 'NONE',  ( -3.491481338843133355E-15, 1.224646799147353207E-16, -1.000000000000000000 ) ) ;
#122 = FACE_OUTER_BOUND ( 'NONE', #151, .T. ) ;
#123 = AXIS2_PLACEMENT_3D ( 'NONE', #249, #19, #138 ) ;
#124 = CARTESIAN_POINT ( 'NONE',  ( 1.668721915867687670E-14, 0.3280370868554645658, 4.779409522551255840 ) ) ;
#125 = DIRECTION ( 'NONE',  ( 0.0000000000000000000, 1.000000000000000000, 0.0000000000000000000 ) ) ;
#126 = FACE_OUTER_BOUND ( 'NONE', #132, .T. ) ;
#127 =( GEOMETRIC_REPRESENTATION_CONTEXT ( 3 ) GLOBAL_UNCERTAINTY_ASSIGNED_CONTEXT ( ( #198 ) ) GLOBAL_UNIT_ASSIGNED_CONTEXT ( ( #283, #1, #168 ) ) REPRESENTATION_CONTEXT ( 'NONE', 'WORKASPACE' ) );
#128 = CALENDAR_DATE ( 2021, 16, 12 ) ;
#129 = ADVANCED_FACE ( 'NONE', ( #205, #183 ), #169, .T. ) ;
#130 = PERSON_AND_ORGANIZATION ( #258, #218 ) ;
#131 = APPROVAL_STATUS ( 'not_yet_approved' ) ;
#132 = EDGE_LOOP ( 'NONE', ( #178 ) ) ;
#133 = CC_DESIGN_APPROVAL ( #144, ( #21 ) ) ;
#134 = EDGE_LOOP ( 'NONE', ( #157 ) ) ;
#135 = PRODUCT ( '303487', '303487', '', ( #89 ) ) ;
#136 = ADVANCED_FACE ( 'NONE', ( #118, #99 ), #182, .T. ) ;
#137 = APPROVAL_PERSON_ORGANIZATION ( #220, #144, #180 ) ;
#138 = DIRECTION ( 'NONE',  ( 4.275831445896958607E-31, 1.000000000000000000, 1.224646799147353207E-16 ) ) ;
#139 = CLOSED_SHELL ( 'NONE', ( #277, #248, #93, #129, #222, #44, #154 ) ) ;
#140 = FACE_OUTER_BOUND ( 'NONE', #203, .T. ) ;
#141 = CARTESIAN_POINT ( 'NONE',  ( 1.396592535537253342E-14, 2.332126462039181451E-33, 4.000000000000000000 ) ) ;
#142 = APPROVAL_PERSON_ORGANIZATION ( #49, #216, #175 ) ;
#143 = DIRECTION ( 'NONE',  ( 0.0000000000000000000, 1.000000000000000000, 0.0000000000000000000 ) ) ;
#144 = APPROVAL ( #179, 'UNSPECIFIED' ) ;
#145 = FACE_OUTER_BOUND ( 'NONE', #252, .T. ) ;
#146 = CIRCLE ( 'NONE', #265, 0.3109999999999999987 ) ;
#147 = DIRECTION ( 'NONE',  ( 6.192700785811055591E-31, 1.000000000000000000, 1.743090309462227983E-16 ) ) ;
#148 = DIRECTION ( 'NONE',  ( 4.275831445896958607E-31, 1.000000000000000000, 1.224646799147353454E-16 ) ) ;
#149 = COORDINATED_UNIVERSAL_TIME_OFFSET ( 1, 0, .AHEAD. ) ;
#150 = ORIENTED_EDGE ( 'NONE', *, *, #25, .F. ) ;
#151 = EDGE_LOOP ( 'NONE', ( #274 ) ) ;
#152 = CALENDAR_DATE ( 2021, 16, 12 ) ;
#153 = ORIENTED_EDGE ( 'NONE', *, *, #87, .T. ) ;
#154 = ADVANCED_FACE ( 'NONE', ( #279 ), #158, .F. ) ;
#155 = ORIENTED_EDGE ( 'NONE', *, *, #191, .T. ) ;
#156 = COORDINATED_UNIVERSAL_TIME_OFFSET ( 1, 0, .AHEAD. ) ;
#157 = ORIENTED_EDGE ( 'NONE', *, *, #87, .F. ) ;
#158 = PLANE ( 'NONE',  #123 ) ;
#159 = LOCAL_TIME ( 10, 8, 47.00000000000000000, #52 ) ;
#160 = FACE_BOUND ( 'NONE', #33, .T. ) ;
#161 = AXIS2_PLACEMENT_3D ( 'NONE', #20, #64, #15 ) ;
#162 = DIRECTION ( 'NONE',  ( -6.192700785811055591E-31, -1.000000000000000000, -1.743090309462227983E-16 ) ) ;
#163 = FACE_OUTER_BOUND ( 'NONE', #51, .T. ) ;
#164 = AXIS2_PLACEMENT_3D ( 'NONE', #82, #42, #275 ) ;
#165 = VERTEX_POINT ( 'NONE', #65 ) ;
#166 = DIRECTION ( 'NONE',  ( -3.491481338843133355E-15, 1.224646799147353207E-16, -1.000000000000000000 ) ) ;
#167 = CC_DESIGN_PERSON_AND_ORGANIZATION_ASSIGNMENT ( #95, #50, ( #63 ) ) ;
#168 =( NAMED_UNIT ( * ) SI_UNIT ( $, .STERADIAN. ) SOLID_ANGLE_UNIT ( ) );
#169 = CONICAL_SURFACE ( 'NONE', #237, 0.7499999999999971134, 0.2617993877991425244 ) ;
#170 = CARTESIAN_POINT ( 'NONE',  ( 1.396592535537253342E-14, -4.898587196589412829E-16, 4.000000000000000000 ) ) ;
#171 = APPLICATION_PROTOCOL_DEFINITION ( 'international standard', 'config_control_design', 1994, #227 ) ;
#172 = EDGE_LOOP ( 'NONE', ( #201 ) ) ;
#173 = AXIS2_PLACEMENT_3D ( 'NONE', #24, #121, #235 ) ;
#174 = CIRCLE ( 'NONE', #59, 0.3110000000000001097 ) ;
#175 = APPROVAL_ROLE ( '' ) ;
#176 = EDGE_LOOP ( 'NONE', ( #75 ) ) ;
#177 = APPROVAL_DATE_TIME ( #28, #216 ) ;
#178 = ORIENTED_EDGE ( 'NONE', *, *, #231, .F. ) ;
#179 = APPROVAL_STATUS ( 'not_yet_approved' ) ;
#180 = APPROVAL_ROLE ( '' ) ;
#181 = EDGE_CURVE ( 'NONE', #214, #214, #108, .T. ) ;
#182 = CYLINDRICAL_SURFACE ( 'NONE', #213, 0.3109999999999998321 ) ;
#183 = FACE_OUTER_BOUND ( 'NONE', #55, .T. ) ;
#184 = AXIS2_PLACEMENT_3D ( 'NONE', #206, #81, #83 ) ;
#185 = DIRECTION ( 'NONE',  ( 3.491481338843133355E-15, -1.224646799147353207E-16, 1.000000000000000000 ) ) ;
#186 = EDGE_LOOP ( 'NONE', ( #264 ) ) ;
#187 = ADVANCED_FACE ( 'NONE', ( #160, #140 ), #32, .T. ) ;
#188 = PLANE ( 'NONE',  #115 ) ;
#189 = CARTESIAN_POINT ( 'NONE',  ( 1.047444401652940007E-13, 0.5999999999999963141, 30.00000000000000000 ) ) ;
#190 = DIRECTION ( 'NONE',  ( -3.491481338843133355E-15, 1.224646799147353207E-16, -1.000000000000000000 ) ) ;
#191 = EDGE_CURVE ( 'NONE', #282, #282, #58, .T. ) ;
#192 = MANIFOLD_SOLID_BREP ( 'Corps-Déplacer/Copier1[1]', #139 ) ;
#193 = CARTESIAN_POINT ( 'NONE',  ( 1.396592535537253342E-14, 0.3109999999999995546, 4.000000000000000000 ) ) ;
#194 = FACE_OUTER_BOUND ( 'NONE', #134, .T. ) ;
#195 = CC_DESIGN_APPROVAL ( #216, ( #7 ) ) ;
#196 = APPLICATION_CONTEXT ( 'configuration controlled 3d designs of mechanical parts and assemblies' ) ;
#197 = DIRECTION ( 'NONE',  ( -3.491481338843133355E-15, 1.224646799147353207E-16, -1.000000000000000000 ) ) ;
#198 = UNCERTAINTY_MEASURE_WITH_UNIT (LENGTH_MEASURE( 1.000000000000000082E-05 ), #283, 'distance_accuracy_value', 'NONE');
#199 = PERSON_AND_ORGANIZATION ( #258, #218 ) ;
#200 = PERSON_AND_ORGANIZATION ( #258, #218 ) ;
#201 = ORIENTED_EDGE ( 'NONE', *, *, #16, .F. ) ;
#202 = APPROVAL_PERSON_ORGANIZATION ( #200, #46, #76 ) ;
#203 = EDGE_LOOP ( 'NONE', ( #155 ) ) ;
#204 = DATE_TIME_ROLE ( 'classification_date' ) ;
#205 = FACE_BOUND ( 'NONE', #271, .T. ) ;
#206 = CARTESIAN_POINT ( 'NONE',  ( 1.668721915867687670E-14, -5.853088573606775477E-16, 4.779409522551255840 ) ) ;
#207 = CARTESIAN_POINT ( 'NONE',  ( -2.879079982112635863E-32, 1.009845318477833999E-33, -8.246012802882656084E-18 ) ) ;
#208 = TOROIDAL_SURFACE ( 'NONE', #164, 0.8109999999999999432, 0.4999999999999997780 ) ;
#209 = DIRECTION ( 'NONE',  ( 4.275831445896958607E-31, 1.000000000000000000, 1.224646799147353207E-16 ) ) ;
#210 = FACE_BOUND ( 'NONE', #247, .T. ) ;
#211 = CARTESIAN_POINT ( 'NONE',  ( 1.042207179644675275E-13, -3.655570695454848748E-15, 29.84999999999999787 ) ) ;
#212 = VERTEX_POINT ( 'NONE', #43 ) ;
#213 = AXIS2_PLACEMENT_3D ( 'NONE', #79, #101, #209 ) ;
#214 = VERTEX_POINT ( 'NONE', #124 ) ;
#215 = DIRECTION ( 'NONE',  ( 0.0000000000000000000, 1.000000000000000000, 0.0000000000000000000 ) ) ;
#216 = APPROVAL ( #221, 'UNSPECIFIED' ) ;
#217 = FACE_OUTER_BOUND ( 'NONE', #186, .T. ) ;
#218 = ORGANIZATION ( 'UNSPECIFIED', 'UNSPECIFIED', '' ) ;
#219 = EDGE_CURVE ( 'NONE', #165, #165, #278, .T. ) ;
#220 = PERSON_AND_ORGANIZATION ( #258, #218 ) ;
#221 = APPROVAL_STATUS ( 'not_yet_approved' ) ;
#222 = ADVANCED_FACE ( 'NONE', ( #194, #217 ), #109, .T. ) ;
#223 = CALENDAR_DATE ( 2021, 16, 12 ) ;
#224 = ORIENTED_EDGE ( 'NONE', *, *, #16, .T. ) ;
#225 = AXIS2_PLACEMENT_3D ( 'NONE', #60, #62, #104 ) ;
#226 = ORIENTED_EDGE ( 'NONE', *, *, #263, .F. ) ;
#227 = APPLICATION_CONTEXT ( 'configuration controlled 3d designs of mechanical parts and assemblies' ) ;
#228 = AXIS2_PLACEMENT_3D ( 'NONE', #18, #229, #61 ) ;
#229 = DIRECTION ( 'NONE',  ( -3.491481338843133355E-15, 1.224646799147353207E-16, -1.000000000000000000 ) ) ;
#230 = DIRECTION ( 'NONE',  ( 3.491481338843133355E-15, -1.224646799147353207E-16, 1.000000000000000000 ) ) ;
#231 = EDGE_CURVE ( 'NONE', #212, #212, #106, .T. ) ;
#232 = DIRECTION ( 'NONE',  ( 3.491481338843133355E-15, -1.224646799147353207E-16, 1.000000000000000000 ) ) ;
#233 = DIRECTION ( 'NONE',  ( -4.275831445896958607E-31, -1.000000000000000000, -1.224646799147353207E-16 ) ) ;
#234 = CARTESIAN_POINT ( 'NONE',  ( 2.218555868924579945E-14, -7.781646470172154088E-16, 6.354196553316465490 ) ) ;
#235 = DIRECTION ( 'NONE',  ( 4.275831445896958607E-31, 1.000000000000000000, 1.224646799147353454E-16 ) ) ;
#236 = DIRECTION ( 'NONE',  ( 0.0000000000000000000, 1.000000000000000000, 0.0000000000000000000 ) ) ;
#237 = AXIS2_PLACEMENT_3D ( 'NONE', #36, #230, #280 ) ;
#238 = ADVANCED_BREP_SHAPE_REPRESENTATION ( '303487', ( #192, #9, #259 ), #127 ) ;
#239 = CARTESIAN_POINT ( 'NONE',  ( 2.365919782978951696E-32, 0.1900000000000000300, 6.776263578034402713E-18 ) ) ;
#240 = VERTEX_POINT ( 'NONE', #66 ) ;
#241 = EDGE_LOOP ( 'NONE', ( #226 ) ) ;
#242 = PERSON_AND_ORGANIZATION_ROLE ( 'design_owner' ) ;
#243 = DIRECTION ( 'NONE',  ( 0.0000000000000000000, 0.0000000000000000000, 1.000000000000000000 ) ) ;
#244 = ORIENTED_EDGE ( 'NONE', *, *, #25, .T. ) ;
#245 = AXIS2_PLACEMENT_3D ( 'NONE', #211, #105, #125 ) ;
#246 = DATE_AND_TIME ( #152, #159 ) ;
#247 = EDGE_LOOP ( 'NONE', ( #268 ) ) ;
#248 = ADVANCED_FACE ( 'NONE', ( #126, #145 ), #48, .T. ) ;
#249 = CARTESIAN_POINT ( 'NONE',  ( 1.047444401652940007E-13, 4.499279347985518085E-33, 30.00000000000000000 ) ) ;
#250 = LOCAL_TIME ( 10, 8, 47.00000000000000000, #112 ) ;
#251 = ORIENTED_EDGE ( 'NONE', *, *, #181, .T. ) ;
#252 = EDGE_LOOP ( 'NONE', ( #224 ) ) ;
#253 = CARTESIAN_POINT ( 'NONE',  ( 1.576676675779219665E-15, -5.530237331650998504E-17, 0.4515781477158446466 ) ) ;
#254 = AXIS2_PLACEMENT_3D ( 'NONE', #27, #190, #236 ) ;
#255 = CARTESIAN_POINT ( 'NONE',  ( 1.623538822562057326E-14, -5.694607616035192869E-16, 4.650000000000000355 ) ) ;
#256 = CARTESIAN_POINT ( 'NONE',  ( 0.0000000000000000000, 0.0000000000000000000, 0.0000000000000000000 ) ) ;
#257 = PLANE ( 'NONE',  #31 ) ;
#258 = PERSON ( 'UNSPECIFIED', 'UNSPECIFIED', 'UNSPECIFIED', ('UNSPECIFIED'), ('UNSPECIFIED'), ('UNSPECIFIED') ) ;
#259 = AXIS2_PLACEMENT_3D ( 'NONE', #110, #243, #10 ) ;
#260 = VERTEX_POINT ( 'NONE', #193 ) ;
#261 = CARTESIAN_POINT ( 'NONE',  ( 1.396592535537253342E-14, 2.332126462039181451E-33, 4.000000000000000000 ) ) ;
#262 = DATE_AND_TIME ( #223, #250 ) ;
#263 = EDGE_CURVE ( 'NONE', #260, #260, #146, .T. ) ;
#264 = ORIENTED_EDGE ( 'NONE', *, *, #219, .T. ) ;
#265 = AXIS2_PLACEMENT_3D ( 'NONE', #170, #197, #215 ) ;
#266 = AXIS2_PLACEMENT_3D ( 'NONE', #207, #39, #233 ) ;
#267 = COORDINATED_UNIVERSAL_TIME_OFFSET ( 1, 0, .AHEAD. ) ;
#268 = ORIENTED_EDGE ( 'NONE', *, *, #53, .T. ) ;
#269 = APPROVAL_DATE_TIME ( #111, #144 ) ;
#270 = DATE_TIME_ROLE ( 'creation_date' ) ;
#271 = EDGE_LOOP ( 'NONE', ( #78 ) ) ;
#272 = AXIS2_PLACEMENT_3D ( 'NONE', #253, #166, #147 ) ;
#273 = SECURITY_CLASSIFICATION_LEVEL ( 'unclassified' ) ;
#274 = ORIENTED_EDGE ( 'NONE', *, *, #231, .T. ) ;
#275 = DIRECTION ( 'NONE',  ( 4.275831445896958607E-31, 1.000000000000000000, 1.224646799147353207E-16 ) ) ;
#276 = FACE_OUTER_BOUND ( 'NONE', #172, .T. ) ;
#277 = ADVANCED_FACE ( 'NONE', ( #122 ), #257, .F. ) ;
#278 = CIRCLE ( 'NONE', #245, 0.7499999999999998890 ) ;
#279 = FACE_OUTER_BOUND ( 'NONE', #11, .T. ) ;
#280 = DIRECTION ( 'NONE',  ( 0.0000000000000000000, -1.000000000000000000, 0.0000000000000000000 ) ) ;
#281 = CC_DESIGN_DATE_AND_TIME_ASSIGNMENT ( #246, #270, ( #21 ) ) ;
#282 = VERTEX_POINT ( 'NONE', #85 ) ;
#283 =( LENGTH_UNIT ( ) NAMED_UNIT ( * ) SI_UNIT ( .MILLI., .METRE. ) );
ENDSEC;
END-ISO-10303-21;
