ISO-10303-21;
HEADER;
FILE_DESCRIPTION (( 'STEP AP203' ),
    '1' );
FILE_NAME ('303486.step',
    '2021-12-16T09:08:47',
    ( '' ),
    ( '' ),
    'SwSTEP 2.0',
    'SolidWorks 2019',
    '' );
FILE_SCHEMA (( 'CONFIG_CONTROL_DESIGN' ));
ENDSEC;

DATA;
#1 = CARTESIAN_POINT ( 'NONE',  ( 0.0000000000000000000, 0.0000000000000000000, 0.0000000000000000000 ) ) ;
#2 = EDGE_LOOP ( 'NONE', ( #263 ) ) ;
#3 = CIRCLE ( 'NONE', #204, 0.2765370868554654082 ) ;
#4 = CARTESIAN_POINT ( 'NONE',  ( 1.047444401652940007E-13, -3.673940397442059178E-15, 30.00000000000000000 ) ) ;
#5 = ORIENTED_EDGE ( 'NONE', *, *, #130, .F. ) ;
#6 = DIRECTION ( 'NONE',  ( -7.421695354093403803E-31, -1.000000000000000000, -2.089021526947024671E-16 ) ) ;
#7 = CARTESIAN_POINT ( 'NONE',  ( 0.0000000000000000000, 0.0000000000000000000, 0.0000000000000000000 ) ) ;
#8 = CONICAL_SURFACE ( 'NONE', #209, 0.2594999999999996754, 0.2617993877991429130 ) ;
#9 = EDGE_LOOP ( 'NONE', ( #161 ) ) ;
#10 = VERTEX_POINT ( 'NONE', #82 ) ;
#11 = EDGE_LOOP ( 'NONE', ( #79 ) ) ;
#12 = ADVANCED_FACE ( 'NONE', ( #230, #94 ), #248, .F. ) ;
#13 = ORGANIZATION ( 'UNSPECIFIED', 'UNSPECIFIED', '' ) ;
#14 = FACE_OUTER_BOUND ( 'NONE', #224, .T. ) ;
#15 = CARTESIAN_POINT ( 'NONE',  ( 1.296523382149027496E-15, -4.547591855365903163E-17, 0.3713390553531119020 ) ) ;
#16 = EDGE_LOOP ( 'NONE', ( #116 ) ) ;
#17 = APPROVAL ( #135, 'UNSPECIFIED' ) ;
#18 = FACE_OUTER_BOUND ( 'NONE', #244, .T. ) ;
#19 = CALENDAR_DATE ( 2021, 16, 12 ) ;
#20 = COORDINATED_UNIVERSAL_TIME_OFFSET ( 1, 0, .AHEAD. ) ;
#21 = CONICAL_SURFACE ( 'NONE', #48, 0.7499999999999971134, 0.2617993877991427465 ) ;
#22 = COORDINATED_UNIVERSAL_TIME_OFFSET ( 1, 0, .AHEAD. ) ;
#23 = ADVANCED_FACE ( 'NONE', ( #267 ), #98, .F. ) ;
#24 = APPLICATION_CONTEXT ( 'configuration controlled 3d designs of mechanical parts and assemblies' ) ;
#25 = APPROVAL_STATUS ( 'not_yet_approved' ) ;
#26 = MANIFOLD_SOLID_BREP ( 'Corps-Déplacer/Copier1[1]', #223 ) ;
#27 = CARTESIAN_POINT ( 'NONE',  ( 1.476690442231316282E-14, 0.2765370868554648531, 4.229409522551257794 ) ) ;
#28 = AXIS2_PLACEMENT_3D ( 'NONE', #77, #142, #164 ) ;
#29 = ORIENTED_EDGE ( 'NONE', *, *, #140, .F. ) ;
#30 = CARTESIAN_POINT ( 'NONE',  ( 1.222018468595096674E-14, -4.286263797015736595E-16, 3.500000000000000000 ) ) ;
#31 = AXIS2_PLACEMENT_3D ( 'NONE', #256, #89, #92 ) ;
#32 = ORIENTED_EDGE ( 'NONE', *, *, #176, .T. ) ;
#33 = ORIENTED_EDGE ( 'NONE', *, *, #68, .F. ) ;
#34 = DIRECTION ( 'NONE',  ( 3.491481338843133355E-15, -1.224646799147353207E-16, 1.000000000000000000 ) ) ;
#35 = ADVANCED_BREP_SHAPE_REPRESENTATION ( '303486', ( #26, #216, #31 ), #143 ) ;
#36 = DIRECTION ( 'NONE',  ( 4.275831445896958607E-31, 1.000000000000000000, 1.224646799147353454E-16 ) ) ;
#37 = CARTESIAN_POINT ( 'NONE',  ( 1.222018468595096674E-14, 0.2594999999999996199, 3.500000000000000000 ) ) ;
#38 = ADVANCED_FACE ( 'NONE', ( #59 ), #269, .F. ) ;
#39 = EDGE_LOOP ( 'NONE', ( #76 ) ) ;
#40 = CARTESIAN_POINT ( 'NONE',  ( 1.296523382149027693E-15, 0.2594999999999996199, 0.3713390553531119576 ) ) ;
#41 = PRODUCT_RELATED_PRODUCT_CATEGORY ( 'detail', '', ( #203 ) ) ;
#42 = DIRECTION ( 'NONE',  ( 3.491481338843133355E-15, -1.224646799147353207E-16, 1.000000000000000000 ) ) ;
#43 = EDGE_LOOP ( 'NONE', ( #247 ) ) ;
#44 = DIRECTION ( 'NONE',  ( -3.491481338843133355E-15, 1.224646799147353207E-16, -1.000000000000000000 ) ) ;
#45 = PERSON_AND_ORGANIZATION ( #127, #13 ) ;
#46 = COORDINATED_UNIVERSAL_TIME_OFFSET ( 1, 0, .AHEAD. ) ;
#47 = ADVANCED_FACE ( 'NONE', ( #205, #163 ), #8, .T. ) ;
#48 = AXIS2_PLACEMENT_3D ( 'NONE', #65, #271, #84 ) ;
#49 = CARTESIAN_POINT ( 'NONE',  ( 1.431507348925684360E-14, 0.2594999999999996199, 4.099999999999999645 ) ) ;
#50 = EDGE_LOOP ( 'NONE', ( #93 ) ) ;
#51 = AXIS2_PLACEMENT_3D ( 'NONE', #123, #53, #97 ) ;
#52 = APPROVAL_STATUS ( 'not_yet_approved' ) ;
#53 = DIRECTION ( 'NONE',  ( -3.491481338843133355E-15, 1.224646799147353207E-16, -1.000000000000000000 ) ) ;
#54 = SHAPE_DEFINITION_REPRESENTATION ( #101, #35 ) ;
#55 = EDGE_LOOP ( 'NONE', ( #183 ) ) ;
#56 = CONICAL_SURFACE ( 'NONE', #155, 0.6000000000000000888, 0.7853981633974450594 ) ;
#57 = APPLICATION_CONTEXT ( 'configuration controlled 3d designs of mechanical parts and assemblies' ) ;
#58 = ORIENTED_EDGE ( 'NONE', *, *, #196, .F. ) ;
#59 = FACE_OUTER_BOUND ( 'NONE', #206, .T. ) ;
#60 = DIRECTION ( 'NONE',  ( 4.275831445896958607E-31, 1.000000000000000000, 1.224646799147353207E-16 ) ) ;
#61 = DIRECTION ( 'NONE',  ( -3.491481338843133355E-15, 1.224646799147353207E-16, -1.000000000000000000 ) ) ;
#62 = AXIS2_PLACEMENT_3D ( 'NONE', #1, #99, #160 ) ;
#63 = VERTEX_POINT ( 'NONE', #40 ) ;
#64 = EDGE_LOOP ( 'NONE', ( #146 ) ) ;
#65 = CARTESIAN_POINT ( 'NONE',  ( 2.093630881901951119E-14, -7.343468600541957939E-16, 5.996397169906267699 ) ) ;
#66 = DIRECTION ( 'NONE',  ( 4.275831445896959482E-31, 1.000000000000000000, 1.224646799147353207E-16 ) ) ;
#67 = APPROVAL_ROLE ( '' ) ;
#68 = EDGE_CURVE ( 'NONE', #152, #152, #139, .T. ) ;
#69 = PERSON_AND_ORGANIZATION_ROLE ( 'creator' ) ;
#70 = SECURITY_CLASSIFICATION_LEVEL ( 'unclassified' ) ;
#71 = CIRCLE ( 'NONE', #83, 0.2595000000000000639 ) ;
#72 = PERSON_AND_ORGANIZATION ( #127, #13 ) ;
#73 = PRODUCT_DEFINITION ( 'UNKNOWN', '', #212, #137 ) ;
#74 = COORDINATED_UNIVERSAL_TIME_OFFSET ( 1, 0, .AHEAD. ) ;
#75 = CYLINDRICAL_SURFACE ( 'NONE', #62, 0.2595000000000000639 ) ;
#76 = ORIENTED_EDGE ( 'NONE', *, *, #228, .T. ) ;
#77 = CARTESIAN_POINT ( 'NONE',  ( 1.047444401652940007E-13, 4.499279347985518085E-33, 30.00000000000000000 ) ) ;
#78 = LOCAL_TIME ( 10, 8, 47.00000000000000000, #74 ) ;
#79 = ORIENTED_EDGE ( 'NONE', *, *, #130, .T. ) ;
#80 = EDGE_LOOP ( 'NONE', ( #58 ) ) ;
#81 = CARTESIAN_POINT ( 'NONE',  ( 1.047444401652940007E-13, 0.5999999999999963141, 30.00000000000000000 ) ) ;
#82 = CARTESIAN_POINT ( 'NONE',  ( 2.093630881901951119E-14, 0.7499999999999963363, 5.996397169906267699 ) ) ;
#83 = AXIS2_PLACEMENT_3D ( 'NONE', #211, #61, #170 ) ;
#84 = DIRECTION ( 'NONE',  ( 0.0000000000000000000, -1.000000000000000000, 0.0000000000000000000 ) ) ;
#85 = EDGE_LOOP ( 'NONE', ( #32 ) ) ;
#86 = VERTEX_POINT ( 'NONE', #251 ) ;
#87 = APPLICATION_PROTOCOL_DEFINITION ( 'international standard', 'config_control_design', 1994, #24 ) ;
#88 = ADVANCED_FACE ( 'NONE', ( #225, #182 ), #75, .T. ) ;
#89 = DIRECTION ( 'NONE',  ( 0.0000000000000000000, 0.0000000000000000000, 1.000000000000000000 ) ) ;
#90 = APPROVAL_PERSON_ORGANIZATION ( #261, #91, #108 ) ;
#91 = APPROVAL ( #25, 'UNSPECIFIED' ) ;
#92 = DIRECTION ( 'NONE',  ( 1.000000000000000000, 0.0000000000000000000, 0.0000000000000000000 ) ) ;
#93 = ORIENTED_EDGE ( 'NONE', *, *, #96, .F. ) ;
#94 = FACE_OUTER_BOUND ( 'NONE', #39, .T. ) ;
#95 = CIRCLE ( 'NONE', #105, 0.1599999999999999756 ) ;
#96 = EDGE_CURVE ( 'NONE', #106, #106, #181, .T. ) ;
#97 = DIRECTION ( 'NONE',  ( 4.275831445896958607E-31, 1.000000000000000000, 1.224646799147353207E-16 ) ) ;
#98 = PLANE ( 'NONE',  #115 ) ;
#99 = DIRECTION ( 'NONE',  ( -3.491481338843133355E-15, 1.224646799147353207E-16, -1.000000000000000000 ) ) ;
#100 = FACE_BOUND ( 'NONE', #9, .T. ) ;
#101 = PRODUCT_DEFINITION_SHAPE ( 'NONE', 'NONE',  #73 ) ;
#102 = DIRECTION ( 'NONE',  ( 0.0000000000000000000, 1.000000000000000000, 0.0000000000000000000 ) ) ;
#103 = LOCAL_TIME ( 10, 8, 47.00000000000000000, #22 ) ;
#104 = CARTESIAN_POINT ( 'NONE',  ( 0.0000000000000000000, 0.0000000000000000000, 0.0000000000000000000 ) ) ;
#105 = AXIS2_PLACEMENT_3D ( 'NONE', #148, #236, #60 ) ;
#106 = VERTEX_POINT ( 'NONE', #37 ) ;
#107 = FACE_OUTER_BOUND ( 'NONE', #43, .T. ) ;
#108 = APPROVAL_ROLE ( '' ) ;
#109 = CALENDAR_DATE ( 2021, 16, 12 ) ;
#110 = AXIS2_PLACEMENT_3D ( 'NONE', #245, #120, #255 ) ;
#111 = PERSON_AND_ORGANIZATION ( #127, #13 ) ;
#112 = PERSON_AND_ORGANIZATION ( #127, #13 ) ;
#113 = LOCAL_TIME ( 10, 8, 47.00000000000000000, #46 ) ;
#114 =( NAMED_UNIT ( * ) PLANE_ANGLE_UNIT ( ) SI_UNIT ( $, .RADIAN. ) );
#115 = AXIS2_PLACEMENT_3D ( 'NONE', #243, #141, #184 ) ;
#116 = ORIENTED_EDGE ( 'NONE', *, *, #176, .F. ) ;
#117 = DIRECTION ( 'NONE',  ( -3.491481338843133355E-15, 1.224646799147353207E-16, -1.000000000000000000 ) ) ;
#118 = CC_DESIGN_APPROVAL ( #124, ( #281 ) ) ;
#119 = EDGE_CURVE ( 'NONE', #210, #210, #252, .T. ) ;
#120 = DIRECTION ( 'NONE',  ( -3.491481338843133355E-15, 1.224646799147353207E-16, -1.000000000000000000 ) ) ;
#121 = AXIS2_PLACEMENT_3D ( 'NONE', #30, #117, #266 ) ;
#122 = CALENDAR_DATE ( 2021, 16, 12 ) ;
#123 = CARTESIAN_POINT ( 'NONE',  ( 1.431507348925684360E-14, -5.421010862427522170E-16, 4.099999999999999645 ) ) ;
#124 = APPROVAL ( #52, 'UNSPECIFIED' ) ;
#125 = DIRECTION ( 'NONE',  ( 0.0000000000000000000, 1.000000000000000000, 0.0000000000000000000 ) ) ;
#126 = DIRECTION ( 'NONE',  ( -4.275831445896958607E-31, -1.000000000000000000, -1.224646799147353207E-16 ) ) ;
#127 = PERSON ( 'UNSPECIFIED', 'UNSPECIFIED', 'UNSPECIFIED', ('UNSPECIFIED'), ('UNSPECIFIED'), ('UNSPECIFIED') ) ;
#128 = DIRECTION ( 'NONE',  ( 0.0000000000000000000, 1.000000000000000000, 0.0000000000000000000 ) ) ;
#129 = VERTEX_POINT ( 'NONE', #222 ) ;
#130 = EDGE_CURVE ( 'NONE', #10, #10, #190, .T. ) ;
#131 = CC_DESIGN_APPROVAL ( #91, ( #212 ) ) ;
#132 = DIRECTION ( 'NONE',  ( -3.491481338843133355E-15, 1.224646799147353207E-16, -1.000000000000000000 ) ) ;
#133 = PLANE ( 'NONE',  #229 ) ;
#134 = PERSON_AND_ORGANIZATION_ROLE ( 'creator' ) ;
#135 = APPROVAL_STATUS ( 'not_yet_approved' ) ;
#136 = AXIS2_PLACEMENT_3D ( 'NONE', #189, #192, #215 ) ;
#137 = DESIGN_CONTEXT ( 'detailed design', #57, 'design' ) ;
#138 = DIRECTION ( 'NONE',  ( -3.491481338843133355E-15, 1.224646799147353207E-16, -1.000000000000000000 ) ) ;
#139 = CIRCLE ( 'NONE', #172, 0.6000000000000000888 ) ;
#140 = EDGE_CURVE ( 'NONE', #86, #86, #71, .T. ) ;
#141 = DIRECTION ( 'NONE',  ( 3.491481338843133355E-15, -1.224646799147353207E-16, 1.000000000000000000 ) ) ;
#142 = DIRECTION ( 'NONE',  ( -3.491481338843133355E-15, 1.224646799147353207E-16, -1.000000000000000000 ) ) ;
#143 =( GEOMETRIC_REPRESENTATION_CONTEXT ( 3 ) GLOBAL_UNCERTAINTY_ASSIGNED_CONTEXT ( ( #240 ) ) GLOBAL_UNIT_ASSIGNED_CONTEXT ( ( #177, #114, #200 ) ) REPRESENTATION_CONTEXT ( 'NONE', 'WORKASPACE' ) );
#144 = ORIENTED_EDGE ( 'NONE', *, *, #96, .T. ) ;
#145 = CC_DESIGN_DATE_AND_TIME_ASSIGNMENT ( #178, #217, ( #73 ) ) ;
#146 = ORIENTED_EDGE ( 'NONE', *, *, #150, .F. ) ;
#147 = CARTESIAN_POINT ( 'NONE',  ( 2.093630881901951119E-14, -7.343468600541957939E-16, 5.996397169906267699 ) ) ;
#148 = CARTESIAN_POINT ( 'NONE',  ( -4.475410530456181210E-32, 1.569762702157109483E-33, -1.281808520832324527E-17 ) ) ;
#149 = DIRECTION ( 'NONE',  ( 7.421695354093403803E-31, 1.000000000000000000, 2.089021526947024671E-16 ) ) ;
#150 = EDGE_CURVE ( 'NONE', #63, #63, #158, .T. ) ;
#151 = CARTESIAN_POINT ( 'NONE',  ( 1.476690442231316282E-14, -5.179532834075732951E-16, 4.229409522551257794 ) ) ;
#152 = VERTEX_POINT ( 'NONE', #81 ) ;
#153 = CALENDAR_DATE ( 2021, 16, 12 ) ;
#154 = PERSON_AND_ORGANIZATION_ROLE ( 'design_owner' ) ;
#155 = AXIS2_PLACEMENT_3D ( 'NONE', #233, #277, #102 ) ;
#156 = PERSON_AND_ORGANIZATION ( #127, #13 ) ;
#157 = VERTEX_POINT ( 'NONE', #27 ) ;
#158 = CIRCLE ( 'NONE', #220, 0.2594999999999996754 ) ;
#159 = PERSON_AND_ORGANIZATION_ROLE ( 'design_supplier' ) ;
#160 = DIRECTION ( 'NONE',  ( 4.275831445896959482E-31, 1.000000000000000000, 1.224646799147353207E-16 ) ) ;
#161 = ORIENTED_EDGE ( 'NONE', *, *, #68, .T. ) ;
#162 = ADVANCED_FACE ( 'NONE', ( #278, #18 ), #186, .T. ) ;
#163 = FACE_OUTER_BOUND ( 'NONE', #2, .T. ) ;
#164 = DIRECTION ( 'NONE',  ( 4.275831445896958607E-31, 1.000000000000000000, 1.224646799147353207E-16 ) ) ;
#165 = FACE_OUTER_BOUND ( 'NONE', #202, .T. ) ;
#166 = DIRECTION ( 'NONE',  ( -3.491481338843133355E-15, 1.224646799147353207E-16, -1.000000000000000000 ) ) ;
#167 = ADVANCED_FACE ( 'NONE', ( #165 ), #133, .T. ) ;
#168 = CARTESIAN_POINT ( 'NONE',  ( 1.222018468595096674E-14, 1.945938318003754198E-33, 3.500000000000000000 ) ) ;
#169 = CIRCLE ( 'NONE', #260, 0.2595000000000001195 ) ;
#170 = DIRECTION ( 'NONE',  ( 0.0000000000000000000, 1.000000000000000000, 0.0000000000000000000 ) ) ;
#171 = DIRECTION ( 'NONE',  ( -3.491481338843133355E-15, 1.224646799147353207E-16, -1.000000000000000000 ) ) ;
#172 = AXIS2_PLACEMENT_3D ( 'NONE', #4, #138, #125 ) ;
#173 = MECHANICAL_CONTEXT ( 'NONE', #24, 'mechanical' ) ;
#174 = APPROVAL_DATE_TIME ( #280, #17 ) ;
#175 = CC_DESIGN_APPROVAL ( #17, ( #73 ) ) ;
#176 = EDGE_CURVE ( 'NONE', #129, #129, #95, .T. ) ;
#177 =( LENGTH_UNIT ( ) NAMED_UNIT ( * ) SI_UNIT ( .MILLI., .METRE. ) );
#178 = DATE_AND_TIME ( #19, #113 ) ;
#179 = APPROVAL_ROLE ( '' ) ;
#180 = ORIENTED_EDGE ( 'NONE', *, *, #140, .T. ) ;
#181 = CIRCLE ( 'NONE', #121, 0.2595000000000000639 ) ;
#182 = FACE_OUTER_BOUND ( 'NONE', #207, .T. ) ;
#183 = ORIENTED_EDGE ( 'NONE', *, *, #228, .F. ) ;
#184 = DIRECTION ( 'NONE',  ( -4.275831445896958607E-31, -1.000000000000000000, -1.224646799147353207E-16 ) ) ;
#185 = EDGE_LOOP ( 'NONE', ( #180 ) ) ;
#186 = CYLINDRICAL_SURFACE ( 'NONE', #276, 0.7499999999999984457 ) ;
#187 = ADVANCED_FACE ( 'NONE', ( #14 ), #254, .F. ) ;
#188 = FACE_BOUND ( 'NONE', #55, .T. ) ;
#189 = CARTESIAN_POINT ( 'NONE',  ( 1.222018468595096674E-14, 1.945938318003754198E-33, 3.500000000000000000 ) ) ;
#190 = CIRCLE ( 'NONE', #265, 0.7499999999999971134 ) ;
#191 = CC_DESIGN_PERSON_AND_ORGANIZATION_ASSIGNMENT ( #72, #134, ( #73 ) ) ;
#192 = DIRECTION ( 'NONE',  ( 3.491481338843133355E-15, -1.224646799147353207E-16, 1.000000000000000000 ) ) ;
#193 = DIRECTION ( 'NONE',  ( -3.491481338843133355E-15, 1.224646799147353207E-16, -1.000000000000000000 ) ) ;
#194 = DATE_AND_TIME ( #282, #246 ) ;
#195 = DATE_AND_TIME ( #109, #198 ) ;
#196 = EDGE_CURVE ( 'NONE', #241, #241, #169, .T. ) ;
#197 = DATE_TIME_ROLE ( 'classification_date' ) ;
#198 = LOCAL_TIME ( 10, 8, 47.00000000000000000, #20 ) ;
#199 = APPLICATION_PROTOCOL_DEFINITION ( 'international standard', 'config_control_design', 1994, #57 ) ;
#200 =( NAMED_UNIT ( * ) SI_UNIT ( $, .STERADIAN. ) SOLID_ANGLE_UNIT ( ) );
#201 = CLOSED_SHELL ( 'NONE', ( #23, #47, #264, #167 ) ) ;
#202 = EDGE_LOOP ( 'NONE', ( #29 ) ) ;
#203 = PRODUCT ( '303486', '303486', '', ( #173 ) ) ;
#204 = AXIS2_PLACEMENT_3D ( 'NONE', #151, #249, #250 ) ;
#205 = FACE_BOUND ( 'NONE', #16, .T. ) ;
#206 = EDGE_LOOP ( 'NONE', ( #33 ) ) ;
#207 = EDGE_LOOP ( 'NONE', ( #227 ) ) ;
#208 = CARTESIAN_POINT ( 'NONE',  ( 1.431507348925684360E-14, -5.021051876504147385E-16, 4.099999999999999645 ) ) ;
#209 = AXIS2_PLACEMENT_3D ( 'NONE', #231, #34, #6 ) ;
#210 = VERTEX_POINT ( 'NONE', #273 ) ;
#211 = CARTESIAN_POINT ( 'NONE',  ( 1.222018468595096674E-14, -4.286263797015736595E-16, 3.500000000000000000 ) ) ;
#212 = PRODUCT_DEFINITION_FORMATION_WITH_SPECIFIED_SOURCE ( 'ANY', '', #203, .NOT_KNOWN. ) ;
#213 = CC_DESIGN_DATE_AND_TIME_ASSIGNMENT ( #195, #197, ( #281 ) ) ;
#214 = FACE_OUTER_BOUND ( 'NONE', #185, .T. ) ;
#215 = DIRECTION ( 'NONE',  ( -4.275831445896958607E-31, -1.000000000000000000, -1.224646799147353207E-16 ) ) ;
#216 = MANIFOLD_SOLID_BREP ( 'Corps-Déplacer/Copier1[2]', #201 ) ;
#217 = DATE_TIME_ROLE ( 'creation_date' ) ;
#218 = PERSON_AND_ORGANIZATION_ROLE ( 'classification_officer' ) ;
#219 = ADVANCED_FACE ( 'NONE', ( #188, #235 ), #21, .T. ) ;
#220 = AXIS2_PLACEMENT_3D ( 'NONE', #15, #44, #149 ) ;
#221 = CC_DESIGN_PERSON_AND_ORGANIZATION_ASSIGNMENT ( #45, #218, ( #281 ) ) ;
#222 = CARTESIAN_POINT ( 'NONE',  ( 2.365919782978951696E-32, 0.1599999999999999756, 6.776263578034402713E-18 ) ) ;
#223 = CLOSED_SHELL ( 'NONE', ( #187, #88, #12, #219, #162, #274, #38 ) ) ;
#224 = EDGE_LOOP ( 'NONE', ( #144 ) ) ;
#225 = FACE_OUTER_BOUND ( 'NONE', #50, .T. ) ;
#226 = APPROVAL_PERSON_ORGANIZATION ( #259, #17, #67 ) ;
#227 = ORIENTED_EDGE ( 'NONE', *, *, #196, .T. ) ;
#228 = EDGE_CURVE ( 'NONE', #157, #157, #3, .T. ) ;
#229 = AXIS2_PLACEMENT_3D ( 'NONE', #168, #42, #126 ) ;
#230 = FACE_OUTER_BOUND ( 'NONE', #80, .T. ) ;
#231 = CARTESIAN_POINT ( 'NONE',  ( 1.296523382149027496E-15, -4.547591855365903163E-17, 0.3713390553531119020 ) ) ;
#232 = CYLINDRICAL_SURFACE ( 'NONE', #238, 0.2594999999999998419 ) ;
#233 = CARTESIAN_POINT ( 'NONE',  ( 1.047444401652940007E-13, -3.673940397442059178E-15, 30.00000000000000000 ) ) ;
#234 = FACE_OUTER_BOUND ( 'NONE', #64, .T. ) ;
#235 = FACE_OUTER_BOUND ( 'NONE', #11, .T. ) ;
#236 = DIRECTION ( 'NONE',  ( -3.491481338843133355E-15, 1.224646799147353207E-16, -1.000000000000000000 ) ) ;
#237 = PERSON_AND_ORGANIZATION ( #127, #13 ) ;
#238 = AXIS2_PLACEMENT_3D ( 'NONE', #7, #132, #66 ) ;
#239 = CC_DESIGN_PERSON_AND_ORGANIZATION_ASSIGNMENT ( #112, #154, ( #203 ) ) ;
#240 = UNCERTAINTY_MEASURE_WITH_UNIT (LENGTH_MEASURE( 1.000000000000000082E-05 ), #177, 'distance_accuracy_value', 'NONE');
#241 = VERTEX_POINT ( 'NONE', #49 ) ;
#242 = CC_DESIGN_SECURITY_CLASSIFICATION ( #281, ( #212 ) ) ;
#243 = CARTESIAN_POINT ( 'NONE',  ( -2.237705265228090605E-32, 7.848813510785547416E-34, -6.409042604161622637E-18 ) ) ;
#244 = EDGE_LOOP ( 'NONE', ( #270 ) ) ;
#245 = CARTESIAN_POINT ( 'NONE',  ( 1.042207179644675275E-13, -3.655570695454848748E-15, 29.84999999999999787 ) ) ;
#246 = LOCAL_TIME ( 10, 8, 47.00000000000000000, #257 ) ;
#247 = ORIENTED_EDGE ( 'NONE', *, *, #119, .F. ) ;
#248 = TOROIDAL_SURFACE ( 'NONE', #51, 0.7595000000000000639, 0.4999999999999998890 ) ;
#249 = DIRECTION ( 'NONE',  ( -3.491481338843133355E-15, 1.224646799147353207E-16, -1.000000000000000000 ) ) ;
#250 = DIRECTION ( 'NONE',  ( 0.0000000000000000000, 1.000000000000000000, 0.0000000000000000000 ) ) ;
#251 = CARTESIAN_POINT ( 'NONE',  ( 1.222018468595096674E-14, 0.2594999999999996199, 3.500000000000000000 ) ) ;
#252 = CIRCLE ( 'NONE', #110, 0.7499999999999998890 ) ;
#253 = EDGE_LOOP ( 'NONE', ( #5 ) ) ;
#254 = PLANE ( 'NONE',  #136 ) ;
#255 = DIRECTION ( 'NONE',  ( 0.0000000000000000000, 1.000000000000000000, 0.0000000000000000000 ) ) ;
#256 = CARTESIAN_POINT ( 'NONE',  ( 0.0000000000000000000, 0.0000000000000000000, 0.0000000000000000000 ) ) ;
#257 = COORDINATED_UNIVERSAL_TIME_OFFSET ( 1, 0, .AHEAD. ) ;
#258 = CC_DESIGN_PERSON_AND_ORGANIZATION_ASSIGNMENT ( #111, #69, ( #212 ) ) ;
#259 = PERSON_AND_ORGANIZATION ( #127, #13 ) ;
#260 = AXIS2_PLACEMENT_3D ( 'NONE', #208, #171, #275 ) ;
#261 = PERSON_AND_ORGANIZATION ( #127, #13 ) ;
#262 = APPROVAL_DATE_TIME ( #283, #124 ) ;
#263 = ORIENTED_EDGE ( 'NONE', *, *, #150, .T. ) ;
#264 = ADVANCED_FACE ( 'NONE', ( #234, #214 ), #232, .T. ) ;
#265 = AXIS2_PLACEMENT_3D ( 'NONE', #147, #193, #128 ) ;
#266 = DIRECTION ( 'NONE',  ( 0.0000000000000000000, 1.000000000000000000, 0.0000000000000000000 ) ) ;
#267 = FACE_OUTER_BOUND ( 'NONE', #85, .T. ) ;
#268 = CC_DESIGN_PERSON_AND_ORGANIZATION_ASSIGNMENT ( #237, #159, ( #212 ) ) ;
#269 = PLANE ( 'NONE',  #28 ) ;
#270 = ORIENTED_EDGE ( 'NONE', *, *, #119, .T. ) ;
#271 = DIRECTION ( 'NONE',  ( 3.491481338843133355E-15, -1.224646799147353207E-16, 1.000000000000000000 ) ) ;
#272 = APPROVAL_PERSON_ORGANIZATION ( #156, #124, #179 ) ;
#273 = CARTESIAN_POINT ( 'NONE',  ( 1.042207179644675275E-13, 0.7499999999999962252, 29.84999999999999787 ) ) ;
#274 = ADVANCED_FACE ( 'NONE', ( #107, #100 ), #56, .T. ) ;
#275 = DIRECTION ( 'NONE',  ( 0.0000000000000000000, 1.000000000000000000, 0.0000000000000000000 ) ) ;
#276 = AXIS2_PLACEMENT_3D ( 'NONE', #104, #166, #36 ) ;
#277 = DIRECTION ( 'NONE',  ( -3.491481338843133355E-15, 1.224646799147353207E-16, -1.000000000000000000 ) ) ;
#278 = FACE_OUTER_BOUND ( 'NONE', #253, .T. ) ;
#279 = APPROVAL_DATE_TIME ( #194, #91 ) ;
#280 = DATE_AND_TIME ( #153, #103 ) ;
#281 = SECURITY_CLASSIFICATION ( '', '', #70 ) ;
#282 = CALENDAR_DATE ( 2021, 16, 12 ) ;
#283 = DATE_AND_TIME ( #122, #78 ) ;
ENDSEC;
END-ISO-10303-21;
