ISO-10303-21;
HEADER;
FILE_DESCRIPTION (( 'STEP AP203' ),
    '1' );
FILE_NAME ('303485.step',
    '2021-12-16T09:08:46',
    ( '' ),
    ( '' ),
    'SwSTEP 2.0',
    'SolidWorks 2019',
    '' );
FILE_SCHEMA (( 'CONFIG_CONTROL_DESIGN' ));
ENDSEC;

DATA;
#1 = AXIS2_PLACEMENT_3D ( 'NONE', #171, #61, #146 ) ;
#2 = DIRECTION ( 'NONE',  ( 0.0000000000000000000, 1.000000000000000000, 0.0000000000000000000 ) ) ;
#3 = AXIS2_PLACEMENT_3D ( 'NONE', #264, #140, #227 ) ;
#4 = CARTESIAN_POINT ( 'NONE',  ( 8.728703347107833388E-15, -3.061616997868383141E-16, 2.500000000000000000 ) ) ;
#5 = CARTESIAN_POINT ( 'NONE',  ( 1.042207179644675275E-13, 0.7499999999999962252, 29.84999999999999787 ) ) ;
#6 = CARTESIAN_POINT ( 'NONE',  ( 1.810937715343869651E-14, 0.7499999999999963363, 5.186731761092285176 ) ) ;
#7 = COORDINATED_UNIVERSAL_TIME_OFFSET ( 1, 0, .AHEAD. ) ;
#8 = APPLICATION_PROTOCOL_DEFINITION ( 'international standard', 'config_control_design', 1994, #15 ) ;
#9 = EDGE_LOOP ( 'NONE', ( #40 ) ) ;
#10 = MECHANICAL_CONTEXT ( 'NONE', #15, 'mechanical' ) ;
#11 = EDGE_LOOP ( 'NONE', ( #163 ) ) ;
#12 = CLOSED_SHELL ( 'NONE', ( #113, #88, #152, #71, #21, #189, #136 ) ) ;
#13 = ORIENTED_EDGE ( 'NONE', *, *, #28, .T. ) ;
#14 = PERSON_AND_ORGANIZATION ( #36, #119 ) ;
#15 = APPLICATION_CONTEXT ( 'configuration controlled 3d designs of mechanical parts and assemblies' ) ;
#16 = ORIENTED_EDGE ( 'NONE', *, *, #247, .T. ) ;
#17 = DIRECTION ( 'NONE',  ( -3.491481338843133355E-15, 1.224646799147353207E-16, -1.000000000000000000 ) ) ;
#18 = AXIS2_PLACEMENT_3D ( 'NONE', #127, #133, #72 ) ;
#19 = EDGE_CURVE ( 'NONE', #174, #174, #271, .T. ) ;
#20 = DIRECTION ( 'NONE',  ( 3.491481338843133355E-15, -1.224646799147353207E-16, 1.000000000000000000 ) ) ;
#21 = ADVANCED_FACE ( 'NONE', ( #213, #210 ), #278, .T. ) ;
#22 = DESIGN_CONTEXT ( 'detailed design', #240, 'design' ) ;
#23 = CARTESIAN_POINT ( 'NONE',  ( 0.0000000000000000000, 0.0000000000000000000, 0.0000000000000000000 ) ) ;
#24 = EDGE_LOOP ( 'NONE', ( #77 ) ) ;
#25 = FACE_OUTER_BOUND ( 'NONE', #9, .T. ) ;
#26 = DIRECTION ( 'NONE',  ( 0.0000000000000000000, 1.000000000000000000, 0.0000000000000000000 ) ) ;
#27 = DIRECTION ( 'NONE',  ( 0.0000000000000000000, 1.000000000000000000, 0.0000000000000000000 ) ) ;
#28 = EDGE_CURVE ( 'NONE', #175, #175, #181, .T. ) ;
#29 = VERTEX_POINT ( 'NONE', #263 ) ;
#30 = FACE_OUTER_BOUND ( 'NONE', #24, .T. ) ;
#31 = LOCAL_TIME ( 10, 8, 46.00000000000000000, #7 ) ;
#32 = APPROVAL ( #98, 'UNSPECIFIED' ) ;
#33 = LOCAL_TIME ( 10, 8, 46.00000000000000000, #99 ) ;
#34 =( NAMED_UNIT ( * ) PLANE_ANGLE_UNIT ( ) SI_UNIT ( $, .RADIAN. ) );
#35 = APPROVAL_ROLE ( '' ) ;
#36 = PERSON ( 'UNSPECIFIED', 'UNSPECIFIED', 'UNSPECIFIED', ('UNSPECIFIED'), ('UNSPECIFIED'), ('UNSPECIFIED') ) ;
#37 = CC_DESIGN_PERSON_AND_ORGANIZATION_ASSIGNMENT ( #74, #157, ( #239 ) ) ;
#38 = EDGE_LOOP ( 'NONE', ( #110 ) ) ;
#39 = ADVANCED_FACE ( 'NONE', ( #282, #89 ), #212, .T. ) ;
#40 = ORIENTED_EDGE ( 'NONE', *, *, #279, .T. ) ;
#41 = UNCERTAINTY_MEASURE_WITH_UNIT (LENGTH_MEASURE( 1.000000000000000082E-05 ), #268, 'distance_accuracy_value', 'NONE');
#42 = DIRECTION ( 'NONE',  ( 4.275831445896958607E-31, 1.000000000000000000, 1.224646799147353207E-16 ) ) ;
#43 = CC_DESIGN_APPROVAL ( #32, ( #239 ) ) ;
#44 = CARTESIAN_POINT ( 'NONE',  ( 8.728703347107833388E-15, 1.563499573424982711E-33, 2.500000000000000000 ) ) ;
#45 = SHAPE_DEFINITION_REPRESENTATION ( #111, #220 ) ;
#46 = AXIS2_PLACEMENT_3D ( 'NONE', #135, #96, #2 ) ;
#47 = EDGE_LOOP ( 'NONE', ( #55 ) ) ;
#48 = DIRECTION ( 'NONE',  ( 4.275831445896958607E-31, 1.000000000000000000, 1.224646799147353207E-16 ) ) ;
#49 = EDGE_CURVE ( 'NONE', #218, #218, #134, .T. ) ;
#50 = FACE_OUTER_BOUND ( 'NONE', #101, .T. ) ;
#51 = CYLINDRICAL_SURFACE ( 'NONE', #115, 0.2084999999999999076 ) ;
#52 = CARTESIAN_POINT ( 'NONE',  ( 1.047444401652940007E-13, -3.673940397442059178E-15, 30.00000000000000000 ) ) ;
#53 = CIRCLE ( 'NONE', #272, 0.2255370868554653352 ) ;
#54 = PERSON_AND_ORGANIZATION ( #36, #119 ) ;
#55 = ORIENTED_EDGE ( 'NONE', *, *, #247, .F. ) ;
#56 = CONICAL_SURFACE ( 'NONE', #95, 0.7499999999999970024, 0.2617993877991426910 ) ;
#57 = AXIS2_PLACEMENT_3D ( 'NONE', #277, #209, #85 ) ;
#58 = PERSON_AND_ORGANIZATION ( #36, #119 ) ;
#59 = EDGE_LOOP ( 'NONE', ( #161 ) ) ;
#60 = DATE_TIME_ROLE ( 'classification_date' ) ;
#61 = DIRECTION ( 'NONE',  ( 3.491481338843133355E-15, -1.224646799147353207E-16, 1.000000000000000000 ) ) ;
#62 = COORDINATED_UNIVERSAL_TIME_OFFSET ( 1, 0, .AHEAD. ) ;
#63 = CYLINDRICAL_SURFACE ( 'NONE', #173, 0.2085000000000000742 ) ;
#64 = CC_DESIGN_DATE_AND_TIME_ASSIGNMENT ( #84, #60, ( #130 ) ) ;
#65 = APPROVAL_STATUS ( 'not_yet_approved' ) ;
#66 = DIRECTION ( 'NONE',  ( 4.275831445896958607E-31, 1.000000000000000000, 1.224646799147353207E-16 ) ) ;
#67 = DIRECTION ( 'NONE',  ( 0.0000000000000000000, 1.000000000000000000, 0.0000000000000000000 ) ) ;
#68 = LOCAL_TIME ( 10, 8, 46.00000000000000000, #75 ) ;
#69 = DIRECTION ( 'NONE',  ( -3.491481338843133355E-15, 1.224646799147353207E-16, -1.000000000000000000 ) ) ;
#70 = DIRECTION ( 'NONE',  ( 0.0000000000000000000, 1.000000000000000000, 0.0000000000000000000 ) ) ;
#71 = ADVANCED_FACE ( 'NONE', ( #275, #81 ), #56, .T. ) ;
#72 = DIRECTION ( 'NONE',  ( 4.275831445896958607E-31, 1.000000000000000000, 1.224646799147353207E-16 ) ) ;
#73 = PLANE ( 'NONE',  #144 ) ;
#74 = PERSON_AND_ORGANIZATION ( #36, #119 ) ;
#75 = COORDINATED_UNIVERSAL_TIME_OFFSET ( 1, 0, .AHEAD. ) ;
#76 = AXIS2_PLACEMENT_3D ( 'NONE', #4, #112, #26 ) ;
#77 = ORIENTED_EDGE ( 'NONE', *, *, #166, .T. ) ;
#78 = CC_DESIGN_PERSON_AND_ORGANIZATION_ASSIGNMENT ( #58, #141, ( #260 ) ) ;
#79 = ORIENTED_EDGE ( 'NONE', *, *, #19, .F. ) ;
#80 = CC_DESIGN_SECURITY_CLASSIFICATION ( #130, ( #260 ) ) ;
#81 = FACE_OUTER_BOUND ( 'NONE', #124, .T. ) ;
#82 = DATE_AND_TIME ( #191, #188 ) ;
#83 = DIRECTION ( 'NONE',  ( -3.491481338843133355E-15, 1.224646799147353207E-16, -1.000000000000000000 ) ) ;
#84 = DATE_AND_TIME ( #104, #228 ) ;
#85 = DIRECTION ( 'NONE',  ( 4.275831445896958607E-31, 1.000000000000000000, 1.224646799147353207E-16 ) ) ;
#86 = APPROVAL_ROLE ( '' ) ;
#87 = FACE_OUTER_BOUND ( 'NONE', #120, .T. ) ;
#88 = ADVANCED_FACE ( 'NONE', ( #87, #192 ), #63, .T. ) ;
#89 = FACE_OUTER_BOUND ( 'NONE', #205, .T. ) ;
#90 = DIRECTION ( 'NONE',  ( -3.491481338843133355E-15, 1.224646799147353207E-16, -1.000000000000000000 ) ) ;
#91 = AXIS2_PLACEMENT_3D ( 'NONE', #52, #283, #137 ) ;
#92 = DIRECTION ( 'NONE',  ( -4.275831445896958607E-31, -1.000000000000000000, -1.224646799147353207E-16 ) ) ;
#93 = DIRECTION ( 'NONE',  ( 3.491481338843133355E-15, -1.224646799147353207E-16, 1.000000000000000000 ) ) ;
#94 = DIRECTION ( 'NONE',  ( -3.491481338843133355E-15, 1.224646799147353207E-16, -1.000000000000000000 ) ) ;
#95 = AXIS2_PLACEMENT_3D ( 'NONE', #142, #108, #232 ) ;
#96 = DIRECTION ( 'NONE',  ( -3.491481338843133355E-15, 1.224646799147353207E-16, -1.000000000000000000 ) ) ;
#97 = ORIENTED_EDGE ( 'NONE', *, *, #19, .T. ) ;
#98 = APPROVAL_STATUS ( 'not_yet_approved' ) ;
#99 = COORDINATED_UNIVERSAL_TIME_OFFSET ( 1, 0, .AHEAD. ) ;
#100 = CALENDAR_DATE ( 2021, 16, 12 ) ;
#101 = EDGE_LOOP ( 'NONE', ( #79 ) ) ;
#102 = PERSON_AND_ORGANIZATION_ROLE ( 'design_owner' ) ;
#103 = CC_DESIGN_DATE_AND_TIME_ASSIGNMENT ( #245, #265, ( #239 ) ) ;
#104 = CALENDAR_DATE ( 2021, 16, 12 ) ;
#105 = DIRECTION ( 'NONE',  ( -3.491481338843133355E-15, 1.224646799147353207E-16, -1.000000000000000000 ) ) ;
#106 = CARTESIAN_POINT ( 'NONE',  ( 0.0000000000000000000, 0.0000000000000000000, 0.0000000000000000000 ) ) ;
#107 = APPROVAL ( #222, 'UNSPECIFIED' ) ;
#108 = DIRECTION ( 'NONE',  ( 3.491481338843133355E-15, -1.224646799147353207E-16, 1.000000000000000000 ) ) ;
#109 = EDGE_LOOP ( 'NONE', ( #194 ) ) ;
#110 = ORIENTED_EDGE ( 'NONE', *, *, #166, .F. ) ;
#111 = PRODUCT_DEFINITION_SHAPE ( 'NONE', 'NONE',  #239 ) ;
#112 = DIRECTION ( 'NONE',  ( -3.491481338843133355E-15, 1.224646799147353207E-16, -1.000000000000000000 ) ) ;
#113 = ADVANCED_FACE ( 'NONE', ( #125 ), #207, .F. ) ;
#114 = DIRECTION ( 'NONE',  ( 0.0000000000000000000, 1.000000000000000000, 0.0000000000000000000 ) ) ;
#115 = AXIS2_PLACEMENT_3D ( 'NONE', #244, #69, #48 ) ;
#116 = CARTESIAN_POINT ( 'NONE',  ( 1.127542308347002789E-14, 0.2255370868554649189, 3.229409522551257350 ) ) ;
#117 = PRODUCT_RELATED_PRODUCT_CATEGORY ( 'detail', '', ( #195 ) ) ;
#118 = CARTESIAN_POINT ( 'NONE',  ( 1.047444401652940007E-13, -3.673940397442059178E-15, 30.00000000000000000 ) ) ;
#119 = ORGANIZATION ( 'UNSPECIFIED', 'UNSPECIFIED', '' ) ;
#120 = EDGE_LOOP ( 'NONE', ( #167 ) ) ;
#121 = APPROVAL_ROLE ( '' ) ;
#122 = EDGE_LOOP ( 'NONE', ( #13 ) ) ;
#123 = CC_DESIGN_PERSON_AND_ORGANIZATION_ASSIGNMENT ( #280, #255, ( #260 ) ) ;
#124 = EDGE_LOOP ( 'NONE', ( #281 ) ) ;
#125 = FACE_OUTER_BOUND ( 'NONE', #147, .T. ) ;
#126 = DIRECTION ( 'NONE',  ( -4.275831445896958607E-31, -1.000000000000000000, -1.224646799147353207E-16 ) ) ;
#127 = CARTESIAN_POINT ( 'NONE',  ( -3.192661096687095073E-32, 1.119834767358553022E-33, -9.144144810881190706E-18 ) ) ;
#128 = DIRECTION ( 'NONE',  ( 4.275831445896958607E-31, 1.000000000000000000, 1.224646799147353454E-16 ) ) ;
#129 = CIRCLE ( 'NONE', #91, 0.6000000000000000888 ) ;
#130 = SECURITY_CLASSIFICATION ( '', '', #231 ) ;
#131 = APPROVAL ( #65, 'UNSPECIFIED' ) ;
#132 = CARTESIAN_POINT ( 'NONE',  ( -1.596330548343547537E-32, 5.599173836792765110E-34, -4.572072405440595353E-18 ) ) ;
#133 = DIRECTION ( 'NONE',  ( -3.491481338843133355E-15, 1.224646799147353207E-16, -1.000000000000000000 ) ) ;
#134 = CIRCLE ( 'NONE', #168, 0.7499999999999998890 ) ;
#135 = CARTESIAN_POINT ( 'NONE',  ( 1.810937715343869651E-14, -6.351914449257581400E-16, 5.186731761092285176 ) ) ;
#136 = ADVANCED_FACE ( 'NONE', ( #190 ), #169, .F. ) ;
#137 = DIRECTION ( 'NONE',  ( 0.0000000000000000000, 1.000000000000000000, 0.0000000000000000000 ) ) ;
#138 = CIRCLE ( 'NONE', #18, 0.1300000000000000044 ) ;
#139 = CC_DESIGN_PERSON_AND_ORGANIZATION_ASSIGNMENT ( #14, #102, ( #195 ) ) ;
#140 = DIRECTION ( 'NONE',  ( 0.0000000000000000000, 0.0000000000000000000, 1.000000000000000000 ) ) ;
#141 = PERSON_AND_ORGANIZATION_ROLE ( 'design_supplier' ) ;
#142 = CARTESIAN_POINT ( 'NONE',  ( 1.810937715343869651E-14, -6.351914449257581400E-16, 5.186731761092285176 ) ) ;
#143 = CARTESIAN_POINT ( 'NONE',  ( 1.042207179644675275E-13, -3.655570695454848748E-15, 29.84999999999999787 ) ) ;
#144 = AXIS2_PLACEMENT_3D ( 'NONE', #132, #93, #92 ) ;
#145 = FACE_OUTER_BOUND ( 'NONE', #225, .T. ) ;
#146 = DIRECTION ( 'NONE',  ( 0.0000000000000000000, -1.000000000000000000, 0.0000000000000000000 ) ) ;
#147 = EDGE_LOOP ( 'NONE', ( #269 ) ) ;
#148 = AXIS2_PLACEMENT_3D ( 'NONE', #118, #199, #114 ) ;
#149 = CARTESIAN_POINT ( 'NONE',  ( 2.365919782978951696E-32, 0.1300000000000000044, 6.776263578034402713E-18 ) ) ;
#150 = MANIFOLD_SOLID_BREP ( 'Corps-Déplacer/Copier1[1]', #12 ) ;
#151 = CARTESIAN_POINT ( 'NONE',  ( 1.022885281393956666E-15, 0.2084999999999997689, 0.2929659883941637122 ) ) ;
#152 = ADVANCED_FACE ( 'NONE', ( #256, #145 ), #214, .F. ) ;
#153 = MANIFOLD_SOLID_BREP ( 'Corps-Déplacer/Copier1[2]', #177 ) ;
#154 = CARTESIAN_POINT ( 'NONE',  ( 8.728703347107833388E-15, 0.2084999999999997689, 2.500000000000000000 ) ) ;
#155 = PLANE ( 'NONE',  #162 ) ;
#156 = FACE_OUTER_BOUND ( 'NONE', #250, .T. ) ;
#157 = PERSON_AND_ORGANIZATION_ROLE ( 'creator' ) ;
#158 = AXIS2_PLACEMENT_3D ( 'NONE', #23, #17, #128 ) ;
#159 = APPROVAL_PERSON_ORGANIZATION ( #160, #32, #121 ) ;
#160 = PERSON_AND_ORGANIZATION ( #36, #119 ) ;
#161 = ORIENTED_EDGE ( 'NONE', *, *, #266, .F. ) ;
#162 = AXIS2_PLACEMENT_3D ( 'NONE', #178, #243, #196 ) ;
#163 = ORIENTED_EDGE ( 'NONE', *, *, #279, .F. ) ;
#164 = PERSON_AND_ORGANIZATION_ROLE ( 'classification_officer' ) ;
#165 = EDGE_LOOP ( 'NONE', ( #237 ) ) ;
#166 = EDGE_CURVE ( 'NONE', #198, #198, #138, .T. ) ;
#167 = ORIENTED_EDGE ( 'NONE', *, *, #202, .F. ) ;
#168 = AXIS2_PLACEMENT_3D ( 'NONE', #143, #105, #187 ) ;
#169 = PLANE ( 'NONE',  #57 ) ;
#170 = PERSON_AND_ORGANIZATION ( #36, #119 ) ;
#171 = CARTESIAN_POINT ( 'NONE',  ( 1.022885281393956666E-15, -3.587798599459532632E-17, 0.2929659883941637122 ) ) ;
#172 = VERTEX_POINT ( 'NONE', #259 ) ;
#173 = AXIS2_PLACEMENT_3D ( 'NONE', #106, #234, #42 ) ;
#174 = VERTEX_POINT ( 'NONE', #151 ) ;
#175 = VERTEX_POINT ( 'NONE', #216 ) ;
#176 = AXIS2_PLACEMENT_3D ( 'NONE', #254, #253, #67 ) ;
#177 = CLOSED_SHELL ( 'NONE', ( #185, #39, #204, #223 ) ) ;
#178 = CARTESIAN_POINT ( 'NONE',  ( 8.728703347107833388E-15, 1.563499573424982711E-33, 2.500000000000000000 ) ) ;
#179 = DATE_AND_TIME ( #100, #31 ) ;
#180 = APPROVAL_DATE_TIME ( #179, #32 ) ;
#181 = CIRCLE ( 'NONE', #176, 0.2085000000000001297 ) ;
#182 = APPROVAL_PERSON_ORGANIZATION ( #170, #131, #86 ) ;
#183 = ORIENTED_EDGE ( 'NONE', *, *, #235, .F. ) ;
#184 = DATE_AND_TIME ( #248, #33 ) ;
#185 = ADVANCED_FACE ( 'NONE', ( #30 ), #73, .F. ) ;
#186 = AXIS2_PLACEMENT_3D ( 'NONE', #44, #20, #126 ) ;
#187 = DIRECTION ( 'NONE',  ( 0.0000000000000000000, 1.000000000000000000, 0.0000000000000000000 ) ) ;
#188 = LOCAL_TIME ( 10, 8, 46.00000000000000000, #276 ) ;
#189 = ADVANCED_FACE ( 'NONE', ( #156, #217 ), #206, .T. ) ;
#190 = FACE_OUTER_BOUND ( 'NONE', #59, .T. ) ;
#191 = CALENDAR_DATE ( 2021, 16, 12 ) ;
#192 = FACE_OUTER_BOUND ( 'NONE', #122, .T. ) ;
#193 = CARTESIAN_POINT ( 'NONE',  ( 1.082359215041371498E-14, -4.336808689942017736E-16, 3.100000000000000533 ) ) ;
#194 = ORIENTED_EDGE ( 'NONE', *, *, #266, .T. ) ;
#195 = PRODUCT ( '303485', '303485', '', ( #10 ) ) ;
#196 = DIRECTION ( 'NONE',  ( -4.275831445896958607E-31, -1.000000000000000000, -1.224646799147353207E-16 ) ) ;
#197 = CIRCLE ( 'NONE', #76, 0.2085000000000000464 ) ;
#198 = VERTEX_POINT ( 'NONE', #149 ) ;
#199 = DIRECTION ( 'NONE',  ( -3.491481338843133355E-15, 1.224646799147353207E-16, -1.000000000000000000 ) ) ;
#200 = CARTESIAN_POINT ( 'NONE',  ( 8.728703347107833388E-15, -3.061616997868383141E-16, 2.500000000000000000 ) ) ;
#201 = EDGE_LOOP ( 'NONE', ( #230 ) ) ;
#202 = EDGE_CURVE ( 'NONE', #262, #262, #197, .T. ) ;
#203 = EDGE_LOOP ( 'NONE', ( #183 ) ) ;
#204 = ADVANCED_FACE ( 'NONE', ( #50, #25 ), #51, .T. ) ;
#205 = EDGE_LOOP ( 'NONE', ( #97 ) ) ;
#206 = CONICAL_SURFACE ( 'NONE', #148, 0.6000000000000000888, 0.7853981633974450594 ) ;
#207 = PLANE ( 'NONE',  #186 ) ;
#208 = APPROVAL_DATE_TIME ( #184, #107 ) ;
#209 = DIRECTION ( 'NONE',  ( -3.491481338843133355E-15, 1.224646799147353207E-16, -1.000000000000000000 ) ) ;
#210 = FACE_OUTER_BOUND ( 'NONE', #165, .T. ) ;
#211 = APPROVAL_DATE_TIME ( #82, #131 ) ;
#212 = CONICAL_SURFACE ( 'NONE', #1, 0.2084999999999997689, 0.2617993877991428575 ) ;
#213 = FACE_OUTER_BOUND ( 'NONE', #203, .T. ) ;
#214 = TOROIDAL_SURFACE ( 'NONE', #267, 0.7085000000000001297, 0.5000000000000000000 ) ;
#215 = CC_DESIGN_APPROVAL ( #107, ( #260 ) ) ;
#216 = CARTESIAN_POINT ( 'NONE',  ( 1.082359215041371340E-14, 0.2084999999999997689, 3.100000000000000089 ) ) ;
#217 = FACE_BOUND ( 'NONE', #109, .T. ) ;
#218 = VERTEX_POINT ( 'NONE', #5 ) ;
#219 = VERTEX_POINT ( 'NONE', #6 ) ;
#220 = ADVANCED_BREP_SHAPE_REPRESENTATION ( '303485', ( #150, #153, #3 ), #238 ) ;
#221 = CIRCLE ( 'NONE', #246, 0.2085000000000000464 ) ;
#222 = APPROVAL_STATUS ( 'not_yet_approved' ) ;
#223 = ADVANCED_FACE ( 'NONE', ( #242 ), #155, .T. ) ;
#224 = APPLICATION_PROTOCOL_DEFINITION ( 'international standard', 'config_control_design', 1994, #240 ) ;
#225 = EDGE_LOOP ( 'NONE', ( #16 ) ) ;
#226 = AXIS2_PLACEMENT_3D ( 'NONE', #258, #83, #236 ) ;
#227 = DIRECTION ( 'NONE',  ( 1.000000000000000000, 0.0000000000000000000, 0.0000000000000000000 ) ) ;
#228 = LOCAL_TIME ( 10, 8, 46.00000000000000000, #62 ) ;
#229 = ORIENTED_EDGE ( 'NONE', *, *, #49, .F. ) ;
#230 = ORIENTED_EDGE ( 'NONE', *, *, #28, .F. ) ;
#231 = SECURITY_CLASSIFICATION_LEVEL ( 'unclassified' ) ;
#232 = DIRECTION ( 'NONE',  ( 0.0000000000000000000, -1.000000000000000000, 0.0000000000000000000 ) ) ;
#233 = APPROVAL_PERSON_ORGANIZATION ( #54, #107, #35 ) ;
#234 = DIRECTION ( 'NONE',  ( -3.491481338843133355E-15, 1.224646799147353207E-16, -1.000000000000000000 ) ) ;
#235 = EDGE_CURVE ( 'NONE', #219, #219, #251, .T. ) ;
#236 = DIRECTION ( 'NONE',  ( 0.0000000000000000000, 1.000000000000000000, 0.0000000000000000000 ) ) ;
#237 = ORIENTED_EDGE ( 'NONE', *, *, #49, .T. ) ;
#238 =( GEOMETRIC_REPRESENTATION_CONTEXT ( 3 ) GLOBAL_UNCERTAINTY_ASSIGNED_CONTEXT ( ( #41 ) ) GLOBAL_UNIT_ASSIGNED_CONTEXT ( ( #268, #34, #270 ) ) REPRESENTATION_CONTEXT ( 'NONE', 'WORKASPACE' ) );
#239 = PRODUCT_DEFINITION ( 'UNKNOWN', '', #260, #22 ) ;
#240 = APPLICATION_CONTEXT ( 'configuration controlled 3d designs of mechanical parts and assemblies' ) ;
#241 = VERTEX_POINT ( 'NONE', #116 ) ;
#242 = FACE_OUTER_BOUND ( 'NONE', #11, .T. ) ;
#243 = DIRECTION ( 'NONE',  ( 3.491481338843133355E-15, -1.224646799147353207E-16, 1.000000000000000000 ) ) ;
#244 = CARTESIAN_POINT ( 'NONE',  ( 0.0000000000000000000, 0.0000000000000000000, 0.0000000000000000000 ) ) ;
#245 = DATE_AND_TIME ( #249, #68 ) ;
#246 = AXIS2_PLACEMENT_3D ( 'NONE', #200, #90, #27 ) ;
#247 = EDGE_CURVE ( 'NONE', #241, #241, #53, .T. ) ;
#248 = CALENDAR_DATE ( 2021, 16, 12 ) ;
#249 = CALENDAR_DATE ( 2021, 16, 12 ) ;
#250 = EDGE_LOOP ( 'NONE', ( #229 ) ) ;
#251 = CIRCLE ( 'NONE', #46, 0.7499999999999970024 ) ;
#252 = CC_DESIGN_PERSON_AND_ORGANIZATION_ASSIGNMENT ( #273, #164, ( #130 ) ) ;
#253 = DIRECTION ( 'NONE',  ( -3.491481338843133355E-15, 1.224646799147353207E-16, -1.000000000000000000 ) ) ;
#254 = CARTESIAN_POINT ( 'NONE',  ( 1.082359215041371340E-14, -3.796405077356794918E-16, 3.100000000000000089 ) ) ;
#255 = PERSON_AND_ORGANIZATION_ROLE ( 'creator' ) ;
#256 = FACE_OUTER_BOUND ( 'NONE', #201, .T. ) ;
#257 = DIRECTION ( 'NONE',  ( -3.491481338843133355E-15, 1.224646799147353207E-16, -1.000000000000000000 ) ) ;
#258 = CARTESIAN_POINT ( 'NONE',  ( 1.022885281393956666E-15, -3.587798599459532632E-17, 0.2929659883941637122 ) ) ;
#259 = CARTESIAN_POINT ( 'NONE',  ( 8.728703347107833388E-15, 0.2084999999999997689, 2.500000000000000000 ) ) ;
#260 = PRODUCT_DEFINITION_FORMATION_WITH_SPECIFIED_SOURCE ( 'ANY', '', #195, .NOT_KNOWN. ) ;
#261 = CARTESIAN_POINT ( 'NONE',  ( 1.127542308347002789E-14, -3.954886034928379498E-16, 3.229409522551257350 ) ) ;
#262 = VERTEX_POINT ( 'NONE', #154 ) ;
#263 = CARTESIAN_POINT ( 'NONE',  ( 1.047444401652940007E-13, 0.5999999999999963141, 30.00000000000000000 ) ) ;
#264 = CARTESIAN_POINT ( 'NONE',  ( 0.0000000000000000000, 0.0000000000000000000, 0.0000000000000000000 ) ) ;
#265 = DATE_TIME_ROLE ( 'creation_date' ) ;
#266 = EDGE_CURVE ( 'NONE', #29, #29, #129, .T. ) ;
#267 = AXIS2_PLACEMENT_3D ( 'NONE', #193, #257, #66 ) ;
#268 =( LENGTH_UNIT ( ) NAMED_UNIT ( * ) SI_UNIT ( .MILLI., .METRE. ) );
#269 = ORIENTED_EDGE ( 'NONE', *, *, #202, .T. ) ;
#270 =( NAMED_UNIT ( * ) SI_UNIT ( $, .STERADIAN. ) SOLID_ANGLE_UNIT ( ) );
#271 = CIRCLE ( 'NONE', #226, 0.2084999999999997689 ) ;
#272 = AXIS2_PLACEMENT_3D ( 'NONE', #261, #94, #70 ) ;
#273 = PERSON_AND_ORGANIZATION ( #36, #119 ) ;
#274 = CC_DESIGN_APPROVAL ( #131, ( #130 ) ) ;
#275 = FACE_BOUND ( 'NONE', #47, .T. ) ;
#276 = COORDINATED_UNIVERSAL_TIME_OFFSET ( 1, 0, .AHEAD. ) ;
#277 = CARTESIAN_POINT ( 'NONE',  ( 1.047444401652940007E-13, 4.499279347985518085E-33, 30.00000000000000000 ) ) ;
#278 = CYLINDRICAL_SURFACE ( 'NONE', #158, 0.7499999999999984457 ) ;
#279 = EDGE_CURVE ( 'NONE', #172, #172, #221, .T. ) ;
#280 = PERSON_AND_ORGANIZATION ( #36, #119 ) ;
#281 = ORIENTED_EDGE ( 'NONE', *, *, #235, .T. ) ;
#282 = FACE_BOUND ( 'NONE', #38, .T. ) ;
#283 = DIRECTION ( 'NONE',  ( -3.491481338843133355E-15, 1.224646799147353207E-16, -1.000000000000000000 ) ) ;
ENDSEC;
END-ISO-10303-21;
