ISO-10303-21;
HEADER;
FILE_DESCRIPTION (( 'STEP AP203' ),
    '1' );
FILE_NAME ('303484.step',
    '2021-12-16T09:08:46',
    ( '' ),
    ( '' ),
    'SwSTEP 2.0',
    'SolidWorks 2019',
    '' );
FILE_SCHEMA (( 'CONFIG_CONTROL_DESIGN' ));
ENDSEC;

DATA;
#1 = AXIS2_PLACEMENT_3D ( 'NONE', #129, #251, #106 ) ;
#2 = APPROVAL ( #79, 'UNSPECIFIED' ) ;
#3 = CLOSED_SHELL ( 'NONE', ( #121, #76, #134, #157 ) ) ;
#4 = ORIENTED_EDGE ( 'NONE', *, *, #278, .T. ) ;
#5 = CARTESIAN_POINT ( 'NONE',  ( 5.237222008264700033E-15, 0.1824999999999998013, 1.500000000000000000 ) ) ;
#6 = FACE_BOUND ( 'NONE', #94, .T. ) ;
#7 = DIRECTION ( 'NONE',  ( 1.000000000000000000, 0.0000000000000000000, 0.0000000000000000000 ) ) ;
#8 = APPROVAL ( #20, 'UNSPECIFIED' ) ;
#9 = ORIENTED_EDGE ( 'NONE', *, *, #130, .T. ) ;
#10 = DIRECTION ( 'NONE',  ( 0.0000000000000000000, 0.0000000000000000000, 1.000000000000000000 ) ) ;
#11 = EDGE_LOOP ( 'NONE', ( #227 ) ) ;
#12 = AXIS2_PLACEMENT_3D ( 'NONE', #263, #10, #7 ) ;
#13 = PERSON_AND_ORGANIZATION ( #280, #202 ) ;
#14 = CARTESIAN_POINT ( 'NONE',  ( 5.237222008264700033E-15, -1.836970198721029934E-16, 1.500000000000000000 ) ) ;
#15 = EDGE_CURVE ( 'NONE', #131, #131, #181, .T. ) ;
#16 = CARTESIAN_POINT ( 'NONE',  ( 0.0000000000000000000, 0.0000000000000000000, 0.0000000000000000000 ) ) ;
#17 = APPROVAL_ROLE ( '' ) ;
#18 = DIRECTION ( 'NONE',  ( 0.0000000000000000000, 1.000000000000000000, 0.0000000000000000000 ) ) ;
#19 = CIRCLE ( 'NONE', #1, 0.1100000000000000144 ) ;
#20 = APPROVAL_STATUS ( 'not_yet_approved' ) ;
#21 = CARTESIAN_POINT ( 'NONE',  ( 7.783941744626894536E-15, -2.730239235781026537E-16, 2.229409522551257350 ) ) ;
#22 = COORDINATED_UNIVERSAL_TIME_OFFSET ( 1, 0, .AHEAD. ) ;
#23 = PLANE ( 'NONE',  #239 ) ;
#24 = CC_DESIGN_DATE_AND_TIME_ASSIGNMENT ( #110, #282, ( #28 ) ) ;
#25 = PERSON_AND_ORGANIZATION ( #280, #202 ) ;
#26 = LOCAL_TIME ( 10, 8, 46.00000000000000000, #151 ) ;
#27 = AXIS2_PLACEMENT_3D ( 'NONE', #205, #228, #122 ) ;
#28 = SECURITY_CLASSIFICATION ( '', '', #236 ) ;
#29 = APPLICATION_CONTEXT ( 'configuration controlled 3d designs of mechanical parts and assemblies' ) ;
#30 = EDGE_LOOP ( 'NONE', ( #160 ) ) ;
#31 = CONICAL_SURFACE ( 'NONE', #267, 0.7499999999999968914, 0.2617993877991428020 ) ;
#32 = DIRECTION ( 'NONE',  ( 0.0000000000000000000, 1.000000000000000000, 0.0000000000000000000 ) ) ;
#33 = CC_DESIGN_SECURITY_CLASSIFICATION ( #28, ( #68 ) ) ;
#34 = PRODUCT_RELATED_PRODUCT_CATEGORY ( 'detail', '', ( #112 ) ) ;
#35 = CARTESIAN_POINT ( 'NONE',  ( 7.783941744626894536E-15, 0.1995370868554647292, 2.229409522551257350 ) ) ;
#36 = FACE_OUTER_BOUND ( 'NONE', #40, .T. ) ;
#37 = CARTESIAN_POINT ( 'NONE',  ( 1.042207179644675275E-13, 0.7499999999999962252, 29.84999999999999787 ) ) ;
#38 = EDGE_LOOP ( 'NONE', ( #4 ) ) ;
#39 =( NAMED_UNIT ( * ) PLANE_ANGLE_UNIT ( ) SI_UNIT ( $, .RADIAN. ) );
#40 = EDGE_LOOP ( 'NONE', ( #135 ) ) ;
#41 = ADVANCED_FACE ( 'NONE', ( #167, #117 ), #141, .T. ) ;
#42 = LOCAL_TIME ( 10, 8, 46.00000000000000000, #75 ) ;
#43 = CARTESIAN_POINT ( 'NONE',  ( 1.047444401652940007E-13, 0.5999999999999963141, 30.00000000000000000 ) ) ;
#44 = DIRECTION ( 'NONE',  ( 3.491481338843133355E-15, -1.224646799147353207E-16, 1.000000000000000000 ) ) ;
#45 = DIRECTION ( 'NONE',  ( 3.491481338843133355E-15, -1.224646799147353207E-16, 1.000000000000000000 ) ) ;
#46 = FACE_OUTER_BOUND ( 'NONE', #204, .T. ) ;
#47 = DIRECTION ( 'NONE',  ( -4.275831445896958607E-31, -1.000000000000000000, -1.224646799147353207E-16 ) ) ;
#48 = DIRECTION ( 'NONE',  ( -3.491481338843133355E-15, 1.224646799147353207E-16, -1.000000000000000000 ) ) ;
#49 = AXIS2_PLACEMENT_3D ( 'NONE', #56, #119, #47 ) ;
#50 = ORIENTED_EDGE ( 'NONE', *, *, #148, .F. ) ;
#51 = AXIS2_PLACEMENT_3D ( 'NONE', #277, #48, #153 ) ;
#52 = PLANE ( 'NONE',  #63 ) ;
#53 = CARTESIAN_POINT ( 'NONE',  ( 7.332110811570581624E-15, 0.1824999999999998013, 2.100000000000000089 ) ) ;
#54 = EDGE_LOOP ( 'NONE', ( #97 ) ) ;
#55 = CC_DESIGN_PERSON_AND_ORGANIZATION_ASSIGNMENT ( #142, #206, ( #112 ) ) ;
#56 = CARTESIAN_POINT ( 'NONE',  ( -1.760227349498589739E-32, 6.174046429385562857E-34, -5.041491500801842454E-18 ) ) ;
#57 = DIRECTION ( 'NONE',  ( -4.275831445896958607E-31, -1.000000000000000000, -1.224646799147353207E-16 ) ) ;
#58 = AXIS2_PLACEMENT_3D ( 'NONE', #16, #238, #101 ) ;
#59 = FACE_OUTER_BOUND ( 'NONE', #270, .T. ) ;
#60 = SHAPE_DEFINITION_REPRESENTATION ( #220, #203 ) ;
#61 = FACE_OUTER_BOUND ( 'NONE', #225, .T. ) ;
#62 = DIRECTION ( 'NONE',  ( -3.491481338843133355E-15, 1.224646799147353207E-16, -1.000000000000000000 ) ) ;
#63 = AXIS2_PLACEMENT_3D ( 'NONE', #78, #139, #169 ) ;
#64 = DIRECTION ( 'NONE',  ( 4.275831445896958607E-31, 1.000000000000000000, 1.224646799147353207E-16 ) ) ;
#65 = PERSON_AND_ORGANIZATION ( #280, #202 ) ;
#66 = CIRCLE ( 'NONE', #183, 0.1825000000000000511 ) ;
#67 = MANIFOLD_SOLID_BREP ( 'Corps-Déplacer/Copier1[1]', #74 ) ;
#68 = PRODUCT_DEFINITION_FORMATION_WITH_SPECIFIED_SOURCE ( 'ANY', '', #112, .NOT_KNOWN. ) ;
#69 = MANIFOLD_SOLID_BREP ( 'Corps-Déplacer/Copier1[2]', #3 ) ;
#70 = EDGE_LOOP ( 'NONE', ( #208 ) ) ;
#71 = DIRECTION ( 'NONE',  ( -3.491481338843133355E-15, 1.224646799147353207E-16, -1.000000000000000000 ) ) ;
#72 = VERTEX_POINT ( 'NONE', #5 ) ;
#73 = FACE_OUTER_BOUND ( 'NONE', #261, .T. ) ;
#74 = CLOSED_SHELL ( 'NONE', ( #84, #41, #257, #185, #209, #125, #254 ) ) ;
#75 = COORDINATED_UNIVERSAL_TIME_OFFSET ( 1, 0, .AHEAD. ) ;
#76 = ADVANCED_FACE ( 'NONE', ( #6, #96 ), #116, .T. ) ;
#77 = CALENDAR_DATE ( 2021, 16, 12 ) ;
#78 = CARTESIAN_POINT ( 'NONE',  ( 5.237222008264700033E-15, 1.368530801678942057E-33, 1.500000000000000000 ) ) ;
#79 = APPROVAL_STATUS ( 'not_yet_approved' ) ;
#80 = CYLINDRICAL_SURFACE ( 'NONE', #260, 0.1824999999999999123 ) ;
#81 = DATE_AND_TIME ( #193, #42 ) ;
#82 = CARTESIAN_POINT ( 'NONE',  ( 1.042207179644675275E-13, -3.655570695454848748E-15, 29.84999999999999787 ) ) ;
#83 = DIRECTION ( 'NONE',  ( 0.0000000000000000000, 1.000000000000000000, 0.0000000000000000000 ) ) ;
#84 = ADVANCED_FACE ( 'NONE', ( #73 ), #52, .F. ) ;
#85 = COORDINATED_UNIVERSAL_TIME_OFFSET ( 1, 0, .AHEAD. ) ;
#86 = CARTESIAN_POINT ( 'NONE',  ( 1.047444401652940007E-13, -3.673940397442059178E-15, 30.00000000000000000 ) ) ;
#87 = DIRECTION ( 'NONE',  ( -3.491481338843133355E-15, 1.224646799147353207E-16, -1.000000000000000000 ) ) ;
#88 = CONICAL_SURFACE ( 'NONE', #281, 0.6000000000000000888, 0.7853981633974450594 ) ;
#89 = PERSON_AND_ORGANIZATION_ROLE ( 'classification_officer' ) ;
#90 = CALENDAR_DATE ( 2021, 16, 12 ) ;
#91 = CC_DESIGN_PERSON_AND_ORGANIZATION_ASSIGNMENT ( #25, #89, ( #28 ) ) ;
#92 = PRODUCT_DEFINITION ( 'UNKNOWN', '', #68, #111 ) ;
#93 = APPROVAL_PERSON_ORGANIZATION ( #13, #104, #100 ) ;
#94 = EDGE_LOOP ( 'NONE', ( #50 ) ) ;
#95 = VERTEX_POINT ( 'NONE', #172 ) ;
#96 = FACE_OUTER_BOUND ( 'NONE', #136, .T. ) ;
#97 = ORIENTED_EDGE ( 'NONE', *, *, #178, .F. ) ;
#98 = CIRCLE ( 'NONE', #107, 0.6000000000000000888 ) ;
#99 = ORIENTED_EDGE ( 'NONE', *, *, #278, .F. ) ;
#100 = APPROVAL_ROLE ( '' ) ;
#101 = DIRECTION ( 'NONE',  ( 4.275831445896958607E-31, 1.000000000000000000, 1.224646799147353454E-16 ) ) ;
#102 =( NAMED_UNIT ( * ) SI_UNIT ( $, .STERADIAN. ) SOLID_ANGLE_UNIT ( ) );
#103 = DIRECTION ( 'NONE',  ( -3.491481338843133355E-15, 1.224646799147353207E-16, -1.000000000000000000 ) ) ;
#104 = APPROVAL ( #265, 'UNSPECIFIED' ) ;
#105 = APPROVAL_DATE_TIME ( #154, #8 ) ;
#106 = DIRECTION ( 'NONE',  ( 4.275831445896958607E-31, 1.000000000000000000, 1.224646799147353207E-16 ) ) ;
#107 = AXIS2_PLACEMENT_3D ( 'NONE', #86, #219, #18 ) ;
#108 = LOCAL_TIME ( 10, 8, 46.00000000000000000, #85 ) ;
#109 = PLANE ( 'NONE',  #159 ) ;
#110 = DATE_AND_TIME ( #90, #108 ) ;
#111 = DESIGN_CONTEXT ( 'detailed design', #29, 'design' ) ;
#112 = PRODUCT ( '303484', '303484', '', ( #138 ) ) ;
#113 = CC_DESIGN_PERSON_AND_ORGANIZATION_ASSIGNMENT ( #166, #120, ( #92 ) ) ;
#114 = AXIS2_PLACEMENT_3D ( 'NONE', #266, #188, #264 ) ;
#115 = ORIENTED_EDGE ( 'NONE', *, *, #130, .F. ) ;
#116 = CONICAL_SURFACE ( 'NONE', #114, 0.1824999999999998290, 0.2617993877991427465 ) ;
#117 = FACE_OUTER_BOUND ( 'NONE', #207, .T. ) ;
#118 = CARTESIAN_POINT ( 'NONE',  ( 5.237222008264700033E-15, 0.1824999999999998013, 1.500000000000000000 ) ) ;
#119 = DIRECTION ( 'NONE',  ( 3.491481338843133355E-15, -1.224646799147353207E-16, 1.000000000000000000 ) ) ;
#120 = PERSON_AND_ORGANIZATION_ROLE ( 'creator' ) ;
#121 = ADVANCED_FACE ( 'NONE', ( #36 ), #249, .F. ) ;
#122 = DIRECTION ( 'NONE',  ( 4.275831445896958607E-31, 1.000000000000000000, 1.224646799147353207E-16 ) ) ;
#123 = ORIENTED_EDGE ( 'NONE', *, *, #15, .F. ) ;
#124 = CYLINDRICAL_SURFACE ( 'NONE', #58, 0.7499999999999983347 ) ;
#125 = ADVANCED_FACE ( 'NONE', ( #59, #149 ), #88, .T. ) ;
#126 = CARTESIAN_POINT ( 'NONE',  ( 9.447029668925084777E-16, -3.313571954914857098E-17, 0.2705736835487501102 ) ) ;
#127 = PERSON_AND_ORGANIZATION ( #280, #202 ) ;
#128 = DIRECTION ( 'NONE',  ( -3.491481338843133355E-15, 1.224646799147353207E-16, -1.000000000000000000 ) ) ;
#129 = CARTESIAN_POINT ( 'NONE',  ( -3.520454698997179479E-32, 1.234809285877112571E-33, -1.008298300160368491E-17 ) ) ;
#130 = EDGE_CURVE ( 'NONE', #252, #252, #137, .T. ) ;
#131 = VERTEX_POINT ( 'NONE', #118 ) ;
#132 = APPROVAL_ROLE ( '' ) ;
#133 = CC_DESIGN_APPROVAL ( #104, ( #92 ) ) ;
#134 = ADVANCED_FACE ( 'NONE', ( #61, #256 ), #80, .T. ) ;
#135 = ORIENTED_EDGE ( 'NONE', *, *, #148, .T. ) ;
#136 = EDGE_LOOP ( 'NONE', ( #9 ) ) ;
#137 = CIRCLE ( 'NONE', #158, 0.1824999999999998290 ) ;
#138 = MECHANICAL_CONTEXT ( 'NONE', #143, 'mechanical' ) ;
#139 = DIRECTION ( 'NONE',  ( 3.491481338843133355E-15, -1.224646799147353207E-16, 1.000000000000000000 ) ) ;
#140 = CARTESIAN_POINT ( 'NONE',  ( 9.447029668925084777E-16, 0.1824999999999998013, 0.2705736835487501102 ) ) ;
#141 = CYLINDRICAL_SURFACE ( 'NONE', #27, 0.1825000000000000233 ) ;
#142 = PERSON_AND_ORGANIZATION ( #280, #202 ) ;
#143 = APPLICATION_CONTEXT ( 'configuration controlled 3d designs of mechanical parts and assemblies' ) ;
#144 = ORIENTED_EDGE ( 'NONE', *, *, #221, .T. ) ;
#145 = AXIS2_PLACEMENT_3D ( 'NONE', #82, #62, #174 ) ;
#146 = CC_DESIGN_APPROVAL ( #2, ( #68 ) ) ;
#147 = DIRECTION ( 'NONE',  ( 0.0000000000000000000, 1.000000000000000000, 0.0000000000000000000 ) ) ;
#148 = EDGE_CURVE ( 'NONE', #187, #187, #19, .T. ) ;
#149 = FACE_BOUND ( 'NONE', #30, .T. ) ;
#150 = CARTESIAN_POINT ( 'NONE',  ( 5.237222008264700033E-15, 1.368530801678942057E-33, 1.500000000000000000 ) ) ;
#151 = COORDINATED_UNIVERSAL_TIME_OFFSET ( 1, 0, .AHEAD. ) ;
#152 = FACE_OUTER_BOUND ( 'NONE', #190, .T. ) ;
#153 = DIRECTION ( 'NONE',  ( 0.0000000000000000000, 1.000000000000000000, 0.0000000000000000000 ) ) ;
#154 = DATE_AND_TIME ( #182, #184 ) ;
#155 = PERSON_AND_ORGANIZATION_ROLE ( 'design_supplier' ) ;
#156 = CIRCLE ( 'NONE', #195, 0.1995370868554650068 ) ;
#157 = ADVANCED_FACE ( 'NONE', ( #217 ), #23, .T. ) ;
#158 = AXIS2_PLACEMENT_3D ( 'NONE', #126, #171, #213 ) ;
#159 = AXIS2_PLACEMENT_3D ( 'NONE', #199, #253, #198 ) ;
#160 = ORIENTED_EDGE ( 'NONE', *, *, #223, .T. ) ;
#161 = ORIENTED_EDGE ( 'NONE', *, *, #221, .F. ) ;
#162 = APPLICATION_PROTOCOL_DEFINITION ( 'international standard', 'config_control_design', 1994, #143 ) ;
#163 = EDGE_LOOP ( 'NONE', ( #244 ) ) ;
#164 = CC_DESIGN_PERSON_AND_ORGANIZATION_ASSIGNMENT ( #127, #200, ( #68 ) ) ;
#165 = CIRCLE ( 'NONE', #189, 0.1824999999999999956 ) ;
#166 = PERSON_AND_ORGANIZATION ( #280, #202 ) ;
#167 = FACE_OUTER_BOUND ( 'NONE', #224, .T. ) ;
#168 = DATE_AND_TIME ( #77, #201 ) ;
#169 = DIRECTION ( 'NONE',  ( -4.275831445896958607E-31, -1.000000000000000000, -1.224646799147353207E-16 ) ) ;
#170 = APPLICATION_PROTOCOL_DEFINITION ( 'international standard', 'config_control_design', 1994, #29 ) ;
#171 = DIRECTION ( 'NONE',  ( -3.491481338843133355E-15, 1.224646799147353207E-16, -1.000000000000000000 ) ) ;
#172 = CARTESIAN_POINT ( 'NONE',  ( 1.495668584410184048E-14, 0.7499999999999963363, 4.283765082089078469 ) ) ;
#173 = APPROVAL_PERSON_ORGANIZATION ( #65, #8, #132 ) ;
#174 = DIRECTION ( 'NONE',  ( 0.0000000000000000000, 1.000000000000000000, 0.0000000000000000000 ) ) ;
#175 = FACE_OUTER_BOUND ( 'NONE', #186, .T. ) ;
#176 = DATE_AND_TIME ( #276, #26 ) ;
#177 = CARTESIAN_POINT ( 'NONE',  ( 7.332110811570581624E-15, -2.168404344971008868E-16, 2.100000000000000089 ) ) ;
#178 = EDGE_CURVE ( 'NONE', #72, #72, #165, .T. ) ;
#179 = PERSON_AND_ORGANIZATION ( #280, #202 ) ;
#180 = DIRECTION ( 'NONE',  ( 0.0000000000000000000, -1.000000000000000000, 0.0000000000000000000 ) ) ;
#181 = CIRCLE ( 'NONE', #226, 0.1824999999999999956 ) ;
#182 = CALENDAR_DATE ( 2021, 16, 12 ) ;
#183 = AXIS2_PLACEMENT_3D ( 'NONE', #194, #274, #255 ) ;
#184 = LOCAL_TIME ( 10, 8, 46.00000000000000000, #22 ) ;
#185 = ADVANCED_FACE ( 'NONE', ( #232, #235 ), #31, .T. ) ;
#186 = EDGE_LOOP ( 'NONE', ( #161 ) ) ;
#187 = VERTEX_POINT ( 'NONE', #212 ) ;
#188 = DIRECTION ( 'NONE',  ( 3.491481338843133355E-15, -1.224646799147353207E-16, 1.000000000000000000 ) ) ;
#189 = AXIS2_PLACEMENT_3D ( 'NONE', #14, #128, #147 ) ;
#190 = EDGE_LOOP ( 'NONE', ( #99 ) ) ;
#191 = PERSON_AND_ORGANIZATION ( #280, #202 ) ;
#192 = DIRECTION ( 'NONE',  ( 0.0000000000000000000, 1.000000000000000000, 0.0000000000000000000 ) ) ;
#193 = CALENDAR_DATE ( 2021, 16, 12 ) ;
#194 = CARTESIAN_POINT ( 'NONE',  ( 7.332110811570581624E-15, -2.571758278209441957E-16, 2.100000000000000089 ) ) ;
#195 = AXIS2_PLACEMENT_3D ( 'NONE', #21, #103, #83 ) ;
#196 = CARTESIAN_POINT ( 'NONE',  ( 1.495668584410184048E-14, -5.246099196079588824E-16, 4.283765082089078469 ) ) ;
#197 = APPROVAL_DATE_TIME ( #176, #2 ) ;
#198 = DIRECTION ( 'NONE',  ( 4.275831445896958607E-31, 1.000000000000000000, 1.224646799147353207E-16 ) ) ;
#199 = CARTESIAN_POINT ( 'NONE',  ( 1.047444401652940007E-13, 4.499279347985518085E-33, 30.00000000000000000 ) ) ;
#200 = PERSON_AND_ORGANIZATION_ROLE ( 'creator' ) ;
#201 = LOCAL_TIME ( 10, 8, 46.00000000000000000, #269 ) ;
#202 = ORGANIZATION ( 'UNSPECIFIED', 'UNSPECIFIED', '' ) ;
#203 = ADVANCED_BREP_SHAPE_REPRESENTATION ( '303484', ( #67, #69, #12 ), #258 ) ;
#204 = EDGE_LOOP ( 'NONE', ( #247 ) ) ;
#205 = CARTESIAN_POINT ( 'NONE',  ( 0.0000000000000000000, 0.0000000000000000000, 0.0000000000000000000 ) ) ;
#206 = PERSON_AND_ORGANIZATION_ROLE ( 'design_owner' ) ;
#207 = EDGE_LOOP ( 'NONE', ( #144 ) ) ;
#208 = ORIENTED_EDGE ( 'NONE', *, *, #178, .T. ) ;
#209 = ADVANCED_FACE ( 'NONE', ( #152, #214 ), #124, .T. ) ;
#210 = VERTEX_POINT ( 'NONE', #35 ) ;
#211 = ORIENTED_EDGE ( 'NONE', *, *, #223, .F. ) ;
#212 = CARTESIAN_POINT ( 'NONE',  ( 1.182959891489475848E-32, 0.1100000000000000144, 3.388131789017201356E-18 ) ) ;
#213 = DIRECTION ( 'NONE',  ( 0.0000000000000000000, 1.000000000000000000, 0.0000000000000000000 ) ) ;
#214 = FACE_OUTER_BOUND ( 'NONE', #11, .T. ) ;
#215 = CIRCLE ( 'NONE', #51, 0.7499999999999968914 ) ;
#216 = EDGE_CURVE ( 'NONE', #210, #210, #156, .T. ) ;
#217 = FACE_OUTER_BOUND ( 'NONE', #54, .T. ) ;
#218 = UNCERTAINTY_MEASURE_WITH_UNIT (LENGTH_MEASURE( 1.000000000000000082E-05 ), #246, 'distance_accuracy_value', 'NONE');
#219 = DIRECTION ( 'NONE',  ( -3.491481338843133355E-15, 1.224646799147353207E-16, -1.000000000000000000 ) ) ;
#220 = PRODUCT_DEFINITION_SHAPE ( 'NONE', 'NONE',  #92 ) ;
#221 = EDGE_CURVE ( 'NONE', #273, #273, #66, .T. ) ;
#222 = AXIS2_PLACEMENT_3D ( 'NONE', #177, #279, #259 ) ;
#223 = EDGE_CURVE ( 'NONE', #271, #271, #98, .T. ) ;
#224 = EDGE_LOOP ( 'NONE', ( #123 ) ) ;
#225 = EDGE_LOOP ( 'NONE', ( #115 ) ) ;
#226 = AXIS2_PLACEMENT_3D ( 'NONE', #262, #71, #32 ) ;
#227 = ORIENTED_EDGE ( 'NONE', *, *, #241, .T. ) ;
#228 = DIRECTION ( 'NONE',  ( -3.491481338843133355E-15, 1.224646799147353207E-16, -1.000000000000000000 ) ) ;
#229 = ORIENTED_EDGE ( 'NONE', *, *, #241, .F. ) ;
#230 = APPROVAL_PERSON_ORGANIZATION ( #191, #2, #17 ) ;
#231 = APPROVAL_DATE_TIME ( #81, #104 ) ;
#232 = FACE_BOUND ( 'NONE', #163, .T. ) ;
#233 = DIRECTION ( 'NONE',  ( -3.491481338843133355E-15, 1.224646799147353207E-16, -1.000000000000000000 ) ) ;
#234 = CC_DESIGN_PERSON_AND_ORGANIZATION_ASSIGNMENT ( #179, #155, ( #68 ) ) ;
#235 = FACE_OUTER_BOUND ( 'NONE', #38, .T. ) ;
#236 = SECURITY_CLASSIFICATION_LEVEL ( 'unclassified' ) ;
#237 = CARTESIAN_POINT ( 'NONE',  ( 0.0000000000000000000, 0.0000000000000000000, 0.0000000000000000000 ) ) ;
#238 = DIRECTION ( 'NONE',  ( -3.491481338843133355E-15, 1.224646799147353207E-16, -1.000000000000000000 ) ) ;
#239 = AXIS2_PLACEMENT_3D ( 'NONE', #150, #44, #57 ) ;
#240 = TOROIDAL_SURFACE ( 'NONE', #222, 0.6825000000000001066, 0.5000000000000000000 ) ;
#241 = EDGE_CURVE ( 'NONE', #250, #250, #245, .T. ) ;
#242 = EDGE_LOOP ( 'NONE', ( #211 ) ) ;
#243 = ORIENTED_EDGE ( 'NONE', *, *, #15, .T. ) ;
#244 = ORIENTED_EDGE ( 'NONE', *, *, #216, .F. ) ;
#245 = CIRCLE ( 'NONE', #145, 0.7499999999999998890 ) ;
#246 =( LENGTH_UNIT ( ) NAMED_UNIT ( * ) SI_UNIT ( .MILLI., .METRE. ) );
#247 = ORIENTED_EDGE ( 'NONE', *, *, #216, .T. ) ;
#248 = DATE_TIME_ROLE ( 'creation_date' ) ;
#249 = PLANE ( 'NONE',  #49 ) ;
#250 = VERTEX_POINT ( 'NONE', #37 ) ;
#251 = DIRECTION ( 'NONE',  ( -3.491481338843133355E-15, 1.224646799147353207E-16, -1.000000000000000000 ) ) ;
#252 = VERTEX_POINT ( 'NONE', #140 ) ;
#253 = DIRECTION ( 'NONE',  ( -3.491481338843133355E-15, 1.224646799147353207E-16, -1.000000000000000000 ) ) ;
#254 = ADVANCED_FACE ( 'NONE', ( #275 ), #109, .F. ) ;
#255 = DIRECTION ( 'NONE',  ( 0.0000000000000000000, 1.000000000000000000, 0.0000000000000000000 ) ) ;
#256 = FACE_OUTER_BOUND ( 'NONE', #70, .T. ) ;
#257 = ADVANCED_FACE ( 'NONE', ( #175, #46 ), #240, .F. ) ;
#258 =( GEOMETRIC_REPRESENTATION_CONTEXT ( 3 ) GLOBAL_UNCERTAINTY_ASSIGNED_CONTEXT ( ( #218 ) ) GLOBAL_UNIT_ASSIGNED_CONTEXT ( ( #246, #39, #102 ) ) REPRESENTATION_CONTEXT ( 'NONE', 'WORKASPACE' ) );
#259 = DIRECTION ( 'NONE',  ( 4.275831445896958607E-31, 1.000000000000000000, 1.224646799147353207E-16 ) ) ;
#260 = AXIS2_PLACEMENT_3D ( 'NONE', #237, #233, #64 ) ;
#261 = EDGE_LOOP ( 'NONE', ( #243 ) ) ;
#262 = CARTESIAN_POINT ( 'NONE',  ( 5.237222008264700033E-15, -1.836970198721029934E-16, 1.500000000000000000 ) ) ;
#263 = CARTESIAN_POINT ( 'NONE',  ( 0.0000000000000000000, 0.0000000000000000000, 0.0000000000000000000 ) ) ;
#264 = DIRECTION ( 'NONE',  ( 0.0000000000000000000, -1.000000000000000000, 0.0000000000000000000 ) ) ;
#265 = APPROVAL_STATUS ( 'not_yet_approved' ) ;
#266 = CARTESIAN_POINT ( 'NONE',  ( 9.447029668925084777E-16, -3.313571954914857098E-17, 0.2705736835487501102 ) ) ;
#267 = AXIS2_PLACEMENT_3D ( 'NONE', #196, #45, #180 ) ;
#268 = CC_DESIGN_APPROVAL ( #8, ( #28 ) ) ;
#269 = COORDINATED_UNIVERSAL_TIME_OFFSET ( 1, 0, .AHEAD. ) ;
#270 = EDGE_LOOP ( 'NONE', ( #229 ) ) ;
#271 = VERTEX_POINT ( 'NONE', #43 ) ;
#272 = CARTESIAN_POINT ( 'NONE',  ( 1.047444401652940007E-13, -3.673940397442059178E-15, 30.00000000000000000 ) ) ;
#273 = VERTEX_POINT ( 'NONE', #53 ) ;
#274 = DIRECTION ( 'NONE',  ( -3.491481338843133355E-15, 1.224646799147353207E-16, -1.000000000000000000 ) ) ;
#275 = FACE_OUTER_BOUND ( 'NONE', #242, .T. ) ;
#276 = CALENDAR_DATE ( 2021, 16, 12 ) ;
#277 = CARTESIAN_POINT ( 'NONE',  ( 1.495668584410184048E-14, -5.246099196079588824E-16, 4.283765082089078469 ) ) ;
#278 = EDGE_CURVE ( 'NONE', #95, #95, #215, .T. ) ;
#279 = DIRECTION ( 'NONE',  ( -3.491481338843133355E-15, 1.224646799147353207E-16, -1.000000000000000000 ) ) ;
#280 = PERSON ( 'UNSPECIFIED', 'UNSPECIFIED', 'UNSPECIFIED', ('UNSPECIFIED'), ('UNSPECIFIED'), ('UNSPECIFIED') ) ;
#281 = AXIS2_PLACEMENT_3D ( 'NONE', #272, #87, #192 ) ;
#282 = DATE_TIME_ROLE ( 'classification_date' ) ;
#283 = CC_DESIGN_DATE_AND_TIME_ASSIGNMENT ( #168, #248, ( #92 ) ) ;
ENDSEC;
END-ISO-10303-21;
