ISO-10303-21;
HEADER;
FILE_DESCRIPTION (( 'STEP AP203' ),
    '1' );
FILE_NAME ('303483.step',
    '2021-12-16T09:08:45',
    ( '' ),
    ( '' ),
    'SwSTEP 2.0',
    'SolidWorks 2019',
    '' );
FILE_SCHEMA (( 'CONFIG_CONTROL_DESIGN' ));
ENDSEC;

DATA;
#1 = DIRECTION ( 'NONE',  ( -3.491481338843133355E-15, 1.224646799147353207E-16, -1.000000000000000000 ) ) ;
#2 = FACE_OUTER_BOUND ( 'NONE', #102, .T. ) ;
#3 = APPROVAL ( #80, 'UNSPECIFIED' ) ;
#4 = DIRECTION ( 'NONE',  ( 0.0000000000000000000, 1.000000000000000000, 0.0000000000000000000 ) ) ;
#5 = CARTESIAN_POINT ( 'NONE',  ( 1.354322001131144103E-14, -4.750322120437403513E-16, 3.878932377682089427 ) ) ;
#6 = VERTEX_POINT ( 'NONE', #181 ) ;
#7 = VERTEX_POINT ( 'NONE', #244 ) ;
#8 = ADVANCED_BREP_SHAPE_REPRESENTATION ( '303483', ( #257, #262, #154 ), #205 ) ;
#9 = DATE_AND_TIME ( #76, #240 ) ;
#10 = CC_DESIGN_PERSON_AND_ORGANIZATION_ASSIGNMENT ( #235, #58, ( #150 ) ) ;
#11 = APPROVAL_ROLE ( '' ) ;
#12 = ORIENTED_EDGE ( 'NONE', *, *, #266, .F. ) ;
#13 = AXIS2_PLACEMENT_3D ( 'NONE', #70, #67, #159 ) ;
#14 = EDGE_LOOP ( 'NONE', ( #101 ) ) ;
#15 = ORIENTED_EDGE ( 'NONE', *, *, #83, .T. ) ;
#16 = DATE_TIME_ROLE ( 'classification_date' ) ;
#17 = ADVANCED_FACE ( 'NONE', ( #60, #186 ), #129, .T. ) ;
#18 = DIRECTION ( 'NONE',  ( -3.491481338843133355E-15, 1.224646799147353207E-16, -1.000000000000000000 ) ) ;
#19 = ORIENTED_EDGE ( 'NONE', *, *, #83, .F. ) ;
#20 = DIRECTION ( 'NONE',  ( 3.491481338843133355E-15, -1.224646799147353207E-16, 1.000000000000000000 ) ) ;
#21 = ADVANCED_FACE ( 'NONE', ( #111, #197 ), #118, .T. ) ;
#22 = CYLINDRICAL_SURFACE ( 'NONE', #126, 0.1569999999999994178 ) ;
#23 = DIRECTION ( 'NONE',  ( 6.133534854736447851E-31, 1.000000000000000000, 1.726436580390938491E-16 ) ) ;
#24 = SECURITY_CLASSIFICATION ( '', '', #103 ) ;
#25 = FACE_OUTER_BOUND ( 'NONE', #280, .T. ) ;
#26 = CARTESIAN_POINT ( 'NONE',  ( 0.0000000000000000000, 0.0000000000000000000, 0.0000000000000000000 ) ) ;
#27 = PERSON ( 'UNSPECIFIED', 'UNSPECIFIED', 'UNSPECIFIED', ('UNSPECIFIED'), ('UNSPECIFIED'), ('UNSPECIFIED') ) ;
#28 = CYLINDRICAL_SURFACE ( 'NONE', #274, 0.7499999999999983347 ) ;
#29 = AXIS2_PLACEMENT_3D ( 'NONE', #184, #53, #200 ) ;
#30 = CARTESIAN_POINT ( 'NONE',  ( 3.491481338843133355E-15, 0.1569999999999992513, 1.000000000000000000 ) ) ;
#31 = VERTEX_POINT ( 'NONE', #52 ) ;
#32 = APPROVAL_STATUS ( 'not_yet_approved' ) ;
#33 = PERSON_AND_ORGANIZATION_ROLE ( 'creator' ) ;
#34 = PERSON_AND_ORGANIZATION_ROLE ( 'classification_officer' ) ;
#35 = AXIS2_PLACEMENT_3D ( 'NONE', #134, #138, #112 ) ;
#36 = DATE_TIME_ROLE ( 'creation_date' ) ;
#37 = ORIENTED_EDGE ( 'NONE', *, *, #121, .T. ) ;
#38 = COORDINATED_UNIVERSAL_TIME_OFFSET ( 1, 0, .AHEAD. ) ;
#39 = EDGE_LOOP ( 'NONE', ( #208 ) ) ;
#40 = CARTESIAN_POINT ( 'NONE',  ( 5.586370142149013368E-15, -1.959434878635764984E-16, 1.599999999999999867 ) ) ;
#41 = APPROVAL_PERSON_ORGANIZATION ( #127, #3, #190 ) ;
#42 = DIRECTION ( 'NONE',  ( 3.491481338843133355E-15, -1.224646799147353207E-16, 1.000000000000000000 ) ) ;
#43 = FACE_BOUND ( 'NONE', #213, .T. ) ;
#44 = EDGE_CURVE ( 'NONE', #31, #31, #225, .T. ) ;
#45 = DIRECTION ( 'NONE',  ( -3.491481338843133355E-15, 1.224646799147353207E-16, -1.000000000000000000 ) ) ;
#46 = CLOSED_SHELL ( 'NONE', ( #69, #201, #17, #199 ) ) ;
#47 = AXIS2_PLACEMENT_3D ( 'NONE', #75, #120, #202 ) ;
#48 = FACE_OUTER_BOUND ( 'NONE', #77, .T. ) ;
#49 = DIRECTION ( 'NONE',  ( 0.0000000000000000000, 1.000000000000000000, 0.0000000000000000000 ) ) ;
#50 = PRODUCT_DEFINITION_SHAPE ( 'NONE', 'NONE',  #91 ) ;
#51 = ORIENTED_EDGE ( 'NONE', *, *, #44, .F. ) ;
#52 = CARTESIAN_POINT ( 'NONE',  ( 1.047444401652940007E-13, 0.5999999999999963141, 30.00000000000000000 ) ) ;
#53 = DIRECTION ( 'NONE',  ( -3.491481338843133355E-15, 1.224646799147353207E-16, -1.000000000000000000 ) ) ;
#54 = APPROVAL_DATE_TIME ( #231, #170 ) ;
#55 = COORDINATED_UNIVERSAL_TIME_OFFSET ( 1, 0, .AHEAD. ) ;
#56 = PERSON_AND_ORGANIZATION ( #27, #92 ) ;
#57 = ORIENTED_EDGE ( 'NONE', *, *, #99, .F. ) ;
#58 = PERSON_AND_ORGANIZATION_ROLE ( 'design_supplier' ) ;
#59 = TOROIDAL_SURFACE ( 'NONE', #273, 0.6569999999999994733, 0.5000000000000001110 ) ;
#60 = FACE_OUTER_BOUND ( 'NONE', #272, .T. ) ;
#61 = PERSON_AND_ORGANIZATION ( #27, #92 ) ;
#62 = ORIENTED_EDGE ( 'NONE', *, *, #281, .F. ) ;
#63 = CC_DESIGN_PERSON_AND_ORGANIZATION_ASSIGNMENT ( #246, #96, ( #95 ) ) ;
#64 = PLANE ( 'NONE',  #260 ) ;
#65 = DIRECTION ( 'NONE',  ( 0.0000000000000000000, 1.000000000000000000, 0.0000000000000000000 ) ) ;
#66 = CC_DESIGN_APPROVAL ( #170, ( #91 ) ) ;
#67 = DIRECTION ( 'NONE',  ( -3.491481338843133355E-15, 1.224646799147353207E-16, -1.000000000000000000 ) ) ;
#68 = DIRECTION ( 'NONE',  ( 4.275831445896958607E-31, 1.000000000000000000, 1.224646799147353454E-16 ) ) ;
#69 = ADVANCED_FACE ( 'NONE', ( #2 ), #64, .F. ) ;
#70 = CARTESIAN_POINT ( 'NONE',  ( 3.491481338843133355E-15, -1.224646799147353207E-16, 1.000000000000000000 ) ) ;
#71 = EDGE_CURVE ( 'NONE', #113, #113, #160, .T. ) ;
#72 = CARTESIAN_POINT ( 'NONE',  ( 3.491481338843133355E-15, 0.1569999999999992513, 1.000000000000000000 ) ) ;
#73 = CIRCLE ( 'NONE', #141, 0.7499999999999967804 ) ;
#74 = DIRECTION ( 'NONE',  ( 0.0000000000000000000, 1.000000000000000000, 0.0000000000000000000 ) ) ;
#75 = CARTESIAN_POINT ( 'NONE',  ( 1.047444401652940007E-13, -3.673940397442059178E-15, 30.00000000000000000 ) ) ;
#76 = CALENDAR_DATE ( 2021, 16, 12 ) ;
#77 = EDGE_LOOP ( 'NONE', ( #51 ) ) ;
#78 = ORIENTED_EDGE ( 'NONE', *, *, #229, .F. ) ;
#79 = EDGE_LOOP ( 'NONE', ( #12 ) ) ;
#80 = APPROVAL_STATUS ( 'not_yet_approved' ) ;
#81 = AXIS2_PLACEMENT_3D ( 'NONE', #283, #86, #259 ) ;
#82 = APPROVAL_PERSON_ORGANIZATION ( #171, #170, #11 ) ;
#83 = EDGE_CURVE ( 'NONE', #7, #7, #140, .T. ) ;
#84 = ADVANCED_FACE ( 'NONE', ( #25 ), #136, .F. ) ;
#85 = DIRECTION ( 'NONE',  ( -3.491481338843133355E-15, 1.224646799147353207E-16, -1.000000000000000000 ) ) ;
#86 = DIRECTION ( 'NONE',  ( 3.491481338843133355E-15, -1.224646799147353207E-16, 1.000000000000000000 ) ) ;
#87 = CIRCLE ( 'NONE', #119, 0.1569999999999993900 ) ;
#88 = CARTESIAN_POINT ( 'NONE',  ( -2.180643824594425107E-31, 7.648668919292730929E-33, -6.245612142715787470E-17 ) ) ;
#89 = DIRECTION ( 'NONE',  ( -3.491481338843133355E-15, 1.224646799147353207E-16, -1.000000000000000000 ) ) ;
#90 = VERTEX_POINT ( 'NONE', #30 ) ;
#91 = PRODUCT_DEFINITION ( 'UNKNOWN', '', #150, #252 ) ;
#92 = ORGANIZATION ( 'UNSPECIFIED', 'UNSPECIFIED', '' ) ;
#93 = CARTESIAN_POINT ( 'NONE',  ( 6.038201075205323914E-15, 0.1740370868554639849, 1.729409522551256018 ) ) ;
#94 = FACE_OUTER_BOUND ( 'NONE', #209, .T. ) ;
#95 = PRODUCT ( '303483', '303483', '', ( #203 ) ) ;
#96 = PERSON_AND_ORGANIZATION_ROLE ( 'design_owner' ) ;
#97 = APPLICATION_PROTOCOL_DEFINITION ( 'international standard', 'config_control_design', 1994, #275 ) ;
#98 = PERSON_AND_ORGANIZATION ( #27, #92 ) ;
#99 = EDGE_CURVE ( 'NONE', #139, #139, #238, .T. ) ;
#100 = PERSON_AND_ORGANIZATION_ROLE ( 'creator' ) ;
#101 = ORIENTED_EDGE ( 'NONE', *, *, #266, .T. ) ;
#102 = EDGE_LOOP ( 'NONE', ( #15 ) ) ;
#103 = SECURITY_CLASSIFICATION_LEVEL ( 'unclassified' ) ;
#104 = EDGE_LOOP ( 'NONE', ( #151 ) ) ;
#105 = ORIENTED_EDGE ( 'NONE', *, *, #121, .F. ) ;
#106 = EDGE_LOOP ( 'NONE', ( #105 ) ) ;
#107 = CARTESIAN_POINT ( 'NONE',  ( -1.090321912297212553E-31, 3.824334459646365464E-33, -3.122806071357893735E-17 ) ) ;
#108 = DIRECTION ( 'NONE',  ( 4.275831445896958607E-31, 1.000000000000000000, 1.224646799147353207E-16 ) ) ;
#109 = FACE_OUTER_BOUND ( 'NONE', #245, .T. ) ;
#110 = CIRCLE ( 'NONE', #114, 0.1740370868554642070 ) ;
#111 = FACE_BOUND ( 'NONE', #106, .T. ) ;
#112 = DIRECTION ( 'NONE',  ( 4.275831445896958607E-31, 1.000000000000000000, 1.224646799147353207E-16 ) ) ;
#113 = VERTEX_POINT ( 'NONE', #142 ) ;
#114 = AXIS2_PLACEMENT_3D ( 'NONE', #241, #89, #4 ) ;
#115 = APPROVAL_PERSON_ORGANIZATION ( #56, #163, #250 ) ;
#116 = VERTEX_POINT ( 'NONE', #117 ) ;
#117 = CARTESIAN_POINT ( 'NONE',  ( 1.042207179644675275E-13, 0.7499999999999962252, 29.84999999999999787 ) ) ;
#118 = CONICAL_SURFACE ( 'NONE', #182, 0.7499999999999967804, 0.2617993877991427465 ) ;
#119 = AXIS2_PLACEMENT_3D ( 'NONE', #268, #162, #49 ) ;
#120 = DIRECTION ( 'NONE',  ( -3.491481338843133355E-15, 1.224646799147353207E-16, -1.000000000000000000 ) ) ;
#121 = EDGE_CURVE ( 'NONE', #230, #230, #110, .T. ) ;
#122 = ADVANCED_FACE ( 'NONE', ( #194, #109 ), #59, .F. ) ;
#123 = ORIENTED_EDGE ( 'NONE', *, *, #281, .T. ) ;
#124 = APPROVAL_DATE_TIME ( #9, #3 ) ;
#125 = EDGE_CURVE ( 'NONE', #90, #90, #220, .T. ) ;
#126 = AXIS2_PLACEMENT_3D ( 'NONE', #26, #258, #108 ) ;
#127 = PERSON_AND_ORGANIZATION ( #27, #92 ) ;
#128 = PRODUCT_RELATED_PRODUCT_CATEGORY ( 'detail', '', ( #95 ) ) ;
#129 = CYLINDRICAL_SURFACE ( 'NONE', #265, 0.1569999999999993345 ) ;
#130 = PERSON_AND_ORGANIZATION ( #27, #92 ) ;
#131 = EDGE_LOOP ( 'NONE', ( #57 ) ) ;
#132 = PLANE ( 'NONE',  #210 ) ;
#133 = LOCAL_TIME ( 10, 8, 45.00000000000000000, #248 ) ;
#134 = CARTESIAN_POINT ( 'NONE',  ( 1.047444401652940007E-13, 4.499279347985518085E-33, 30.00000000000000000 ) ) ;
#135 = DIRECTION ( 'NONE',  ( 0.0000000000000000000, -1.000000000000000000, 0.0000000000000000000 ) ) ;
#136 = PLANE ( 'NONE',  #164 ) ;
#137 = CONICAL_SURFACE ( 'NONE', #81, 0.1569999999999992790, 0.2617993877991429130 ) ;
#138 = DIRECTION ( 'NONE',  ( -3.491481338843133355E-15, 1.224646799147353207E-16, -1.000000000000000000 ) ) ;
#139 = VERTEX_POINT ( 'NONE', #206 ) ;
#140 = CIRCLE ( 'NONE', #175, 0.09500000000000000111 ) ;
#141 = AXIS2_PLACEMENT_3D ( 'NONE', #5, #146, #74 ) ;
#142 = CARTESIAN_POINT ( 'NONE',  ( 8.078839165149648785E-16, 0.1569999999999992513, 0.2313871500692737393 ) ) ;
#143 = APPLICATION_CONTEXT ( 'configuration controlled 3d designs of mechanical parts and assemblies' ) ;
#144 = EDGE_LOOP ( 'NONE', ( #78 ) ) ;
#145 = FACE_OUTER_BOUND ( 'NONE', #14, .T. ) ;
#146 = DIRECTION ( 'NONE',  ( -3.491481338843133355E-15, 1.224646799147353207E-16, -1.000000000000000000 ) ) ;
#147 = CC_DESIGN_PERSON_AND_ORGANIZATION_ASSIGNMENT ( #61, #34, ( #24 ) ) ;
#148 = SHAPE_DEFINITION_REPRESENTATION ( #50, #8 ) ;
#149 = DATE_AND_TIME ( #251, #161 ) ;
#150 = PRODUCT_DEFINITION_FORMATION_WITH_SPECIFIED_SOURCE ( 'ANY', '', #95, .NOT_KNOWN. ) ;
#151 = ORIENTED_EDGE ( 'NONE', *, *, #44, .T. ) ;
#152 = CARTESIAN_POINT ( 'NONE',  ( 8.078839165149647799E-16, -2.833675326961643483E-17, 0.2313871500692737115 ) ) ;
#153 = CLOSED_SHELL ( 'NONE', ( #84, #193, #122, #21, #278, #207, #178 ) ) ;
#154 = AXIS2_PLACEMENT_3D ( 'NONE', #270, #223, #183 ) ;
#155 = CARTESIAN_POINT ( 'NONE',  ( 1.354322001131144103E-14, -4.750322120437403513E-16, 3.878932377682089427 ) ) ;
#156 = DIRECTION ( 'NONE',  ( -4.275831445896958607E-31, -1.000000000000000000, -1.224646799147353207E-16 ) ) ;
#157 = DIRECTION ( 'NONE',  ( 0.0000000000000000000, 1.000000000000000000, 0.0000000000000000000 ) ) ;
#158 = CC_DESIGN_DATE_AND_TIME_ASSIGNMENT ( #271, #36, ( #91 ) ) ;
#159 = DIRECTION ( 'NONE',  ( 0.0000000000000000000, 1.000000000000000000, 0.0000000000000000000 ) ) ;
#160 = CIRCLE ( 'NONE', #187, 0.1569999999999992790 ) ;
#161 = LOCAL_TIME ( 10, 8, 45.00000000000000000, #55 ) ;
#162 = DIRECTION ( 'NONE',  ( -3.491481338843133355E-15, 1.224646799147353207E-16, -1.000000000000000000 ) ) ;
#163 = APPROVAL ( #211, 'UNSPECIFIED' ) ;
#164 = AXIS2_PLACEMENT_3D ( 'NONE', #263, #219, #198 ) ;
#165 = CIRCLE ( 'NONE', #29, 0.7499999999999998890 ) ;
#166 = VERTEX_POINT ( 'NONE', #72 ) ;
#167 = CARTESIAN_POINT ( 'NONE',  ( 0.0000000000000000000, 0.0000000000000000000, 0.0000000000000000000 ) ) ;
#168 = COORDINATED_UNIVERSAL_TIME_OFFSET ( 1, 0, .AHEAD. ) ;
#169 = ORIENTED_EDGE ( 'NONE', *, *, #99, .T. ) ;
#170 = APPROVAL ( #32, 'UNSPECIFIED' ) ;
#171 = PERSON_AND_ORGANIZATION ( #27, #92 ) ;
#172 = CONICAL_SURFACE ( 'NONE', #47, 0.6000000000000000888, 0.7853981633974450594 ) ;
#173 = FACE_OUTER_BOUND ( 'NONE', #227, .T. ) ;
#174 = FACE_OUTER_BOUND ( 'NONE', #39, .T. ) ;
#175 = AXIS2_PLACEMENT_3D ( 'NONE', #88, #177, #264 ) ;
#176 = FACE_OUTER_BOUND ( 'NONE', #79, .T. ) ;
#177 = DIRECTION ( 'NONE',  ( -3.491481338843133355E-15, 1.224646799147353207E-16, -1.000000000000000000 ) ) ;
#178 = ADVANCED_FACE ( 'NONE', ( #48 ), #218, .F. ) ;
#179 = CC_DESIGN_DATE_AND_TIME_ASSIGNMENT ( #254, #16, ( #24 ) ) ;
#180 = DIRECTION ( 'NONE',  ( -4.275831445896958607E-31, -1.000000000000000000, -1.224646799147353207E-16 ) ) ;
#181 = CARTESIAN_POINT ( 'NONE',  ( 1.354322001131144103E-14, 0.7499999999999963363, 3.878932377682089427 ) ) ;
#182 = AXIS2_PLACEMENT_3D ( 'NONE', #155, #42, #135 ) ;
#183 = DIRECTION ( 'NONE',  ( 1.000000000000000000, 0.0000000000000000000, 0.0000000000000000000 ) ) ;
#184 = CARTESIAN_POINT ( 'NONE',  ( 1.042207179644675275E-13, -3.655570695454848748E-15, 29.84999999999999787 ) ) ;
#185 = COORDINATED_UNIVERSAL_TIME_OFFSET ( 1, 0, .AHEAD. ) ;
#186 = FACE_OUTER_BOUND ( 'NONE', #253, .T. ) ;
#187 = AXIS2_PLACEMENT_3D ( 'NONE', #152, #1, #23 ) ;
#188 = CC_DESIGN_APPROVAL ( #3, ( #150 ) ) ;
#189 = CALENDAR_DATE ( 2021, 16, 12 ) ;
#190 = APPROVAL_ROLE ( '' ) ;
#191 = ORIENTED_EDGE ( 'NONE', *, *, #71, .F. ) ;
#192 = ORIENTED_EDGE ( 'NONE', *, *, #125, .F. ) ;
#193 = ADVANCED_FACE ( 'NONE', ( #222, #173 ), #22, .T. ) ;
#194 = FACE_OUTER_BOUND ( 'NONE', #131, .T. ) ;
#195 = DIRECTION ( 'NONE',  ( 4.390590712981053363E-31, 1.000000000000000000, 1.224646799147353207E-16 ) ) ;
#196 = DIRECTION ( 'NONE',  ( -3.491481338843133355E-15, 1.224646799147353207E-16, -1.000000000000000000 ) ) ;
#197 = FACE_OUTER_BOUND ( 'NONE', #236, .T. ) ;
#198 = DIRECTION ( 'NONE',  ( -4.275831445896958607E-31, -1.000000000000000000, -1.224646799147353207E-16 ) ) ;
#199 = ADVANCED_FACE ( 'NONE', ( #282 ), #132, .T. ) ;
#200 = DIRECTION ( 'NONE',  ( 0.0000000000000000000, 1.000000000000000000, 0.0000000000000000000 ) ) ;
#201 = ADVANCED_FACE ( 'NONE', ( #43, #174 ), #137, .T. ) ;
#202 = DIRECTION ( 'NONE',  ( 0.0000000000000000000, 1.000000000000000000, 0.0000000000000000000 ) ) ;
#203 = MECHANICAL_CONTEXT ( 'NONE', #143, 'mechanical' ) ;
#204 = AXIS2_PLACEMENT_3D ( 'NONE', #40, #45, #65 ) ;
#205 =( GEOMETRIC_REPRESENTATION_CONTEXT ( 3 ) GLOBAL_UNCERTAINTY_ASSIGNED_CONTEXT ( ( #212 ) ) GLOBAL_UNIT_ASSIGNED_CONTEXT ( ( #228, #243, #242 ) ) REPRESENTATION_CONTEXT ( 'NONE', 'WORKASPACE' ) );
#206 = CARTESIAN_POINT ( 'NONE',  ( 5.586370142149013368E-15, 0.1569999999999992513, 1.599999999999999867 ) ) ;
#207 = ADVANCED_FACE ( 'NONE', ( #176, #261 ), #172, .T. ) ;
#208 = ORIENTED_EDGE ( 'NONE', *, *, #71, .T. ) ;
#209 = EDGE_LOOP ( 'NONE', ( #62 ) ) ;
#210 = AXIS2_PLACEMENT_3D ( 'NONE', #217, #20, #156 ) ;
#211 = APPROVAL_STATUS ( 'not_yet_approved' ) ;
#212 = UNCERTAINTY_MEASURE_WITH_UNIT (LENGTH_MEASURE( 1.000000000000000082E-05 ), #228, 'distance_accuracy_value', 'NONE');
#213 = EDGE_LOOP ( 'NONE', ( #19 ) ) ;
#214 = CALENDAR_DATE ( 2021, 16, 12 ) ;
#215 = CARTESIAN_POINT ( 'NONE',  ( 0.0000000000000000000, 0.0000000000000000000, 0.0000000000000000000 ) ) ;
#216 = CC_DESIGN_PERSON_AND_ORGANIZATION_ASSIGNMENT ( #98, #33, ( #150 ) ) ;
#217 = CARTESIAN_POINT ( 'NONE',  ( 3.491481338843133355E-15, 1.177311429389551866E-33, 1.000000000000000000 ) ) ;
#218 = PLANE ( 'NONE',  #35 ) ;
#219 = DIRECTION ( 'NONE',  ( 3.491481338843133355E-15, -1.224646799147353207E-16, 1.000000000000000000 ) ) ;
#220 = CIRCLE ( 'NONE', #13, 0.1569999999999993900 ) ;
#221 = DIRECTION ( 'NONE',  ( 3.491481338843133355E-15, -1.224646799147353207E-16, 1.000000000000000000 ) ) ;
#222 = FACE_OUTER_BOUND ( 'NONE', #255, .T. ) ;
#223 = DIRECTION ( 'NONE',  ( 0.0000000000000000000, 0.0000000000000000000, 1.000000000000000000 ) ) ;
#224 = DIRECTION ( 'NONE',  ( 4.275831445896958607E-31, 1.000000000000000000, 1.224646799147352961E-16 ) ) ;
#225 = CIRCLE ( 'NONE', #279, 0.6000000000000000888 ) ;
#226 = CC_DESIGN_APPROVAL ( #163, ( #24 ) ) ;
#227 = EDGE_LOOP ( 'NONE', ( #169 ) ) ;
#228 =( LENGTH_UNIT ( ) NAMED_UNIT ( * ) SI_UNIT ( .MILLI., .METRE. ) );
#229 = EDGE_CURVE ( 'NONE', #166, #166, #87, .T. ) ;
#230 = VERTEX_POINT ( 'NONE', #93 ) ;
#231 = DATE_AND_TIME ( #189, #133 ) ;
#232 = CC_DESIGN_PERSON_AND_ORGANIZATION_ASSIGNMENT ( #130, #100, ( #91 ) ) ;
#233 = ORIENTED_EDGE ( 'NONE', *, *, #229, .T. ) ;
#234 = LOCAL_TIME ( 10, 8, 45.00000000000000000, #185 ) ;
#235 = PERSON_AND_ORGANIZATION ( #27, #92 ) ;
#236 = EDGE_LOOP ( 'NONE', ( #123 ) ) ;
#237 = CARTESIAN_POINT ( 'NONE',  ( 1.047444401652940007E-13, -3.673940397442059178E-15, 30.00000000000000000 ) ) ;
#238 = CIRCLE ( 'NONE', #204, 0.1569999999999994456 ) ;
#239 = CARTESIAN_POINT ( 'NONE',  ( 5.586370142149010213E-15, -2.168404344971008868E-16, 1.599999999999998979 ) ) ;
#240 = LOCAL_TIME ( 10, 8, 45.00000000000000000, #168 ) ;
#241 = CARTESIAN_POINT ( 'NONE',  ( 6.038201075205323914E-15, -2.117915836207348085E-16, 1.729409522551256018 ) ) ;
#242 =( NAMED_UNIT ( * ) SI_UNIT ( $, .STERADIAN. ) SOLID_ANGLE_UNIT ( ) );
#243 =( NAMED_UNIT ( * ) PLANE_ANGLE_UNIT ( ) SI_UNIT ( $, .RADIAN. ) );
#244 = CARTESIAN_POINT ( 'NONE',  ( -1.774439837234213785E-31, 0.09500000000000000111, -5.082197683525802034E-17 ) ) ;
#245 = EDGE_LOOP ( 'NONE', ( #37 ) ) ;
#246 = PERSON_AND_ORGANIZATION ( #27, #92 ) ;
#247 = DIRECTION ( 'NONE',  ( -3.491481338843133355E-15, 1.224646799147353207E-16, -1.000000000000000000 ) ) ;
#248 = COORDINATED_UNIVERSAL_TIME_OFFSET ( 1, 0, .AHEAD. ) ;
#249 = CC_DESIGN_SECURITY_CLASSIFICATION ( #24, ( #150 ) ) ;
#250 = APPROVAL_ROLE ( '' ) ;
#251 = CALENDAR_DATE ( 2021, 16, 12 ) ;
#252 = DESIGN_CONTEXT ( 'detailed design', #275, 'design' ) ;
#253 = EDGE_LOOP ( 'NONE', ( #233 ) ) ;
#254 = DATE_AND_TIME ( #214, #234 ) ;
#255 = EDGE_LOOP ( 'NONE', ( #192 ) ) ;
#256 = ORIENTED_EDGE ( 'NONE', *, *, #125, .T. ) ;
#257 = MANIFOLD_SOLID_BREP ( 'Corps-Déplacer/Copier1[1]', #153 ) ;
#258 = DIRECTION ( 'NONE',  ( -3.491481338843133355E-15, 1.224646799147353207E-16, -1.000000000000000000 ) ) ;
#259 = DIRECTION ( 'NONE',  ( -6.133534854736447851E-31, -1.000000000000000000, -1.726436580390938491E-16 ) ) ;
#260 = AXIS2_PLACEMENT_3D ( 'NONE', #107, #221, #180 ) ;
#261 = FACE_BOUND ( 'NONE', #104, .T. ) ;
#262 = MANIFOLD_SOLID_BREP ( 'Corps-Déplacer/Copier1[2]', #46 ) ;
#263 = CARTESIAN_POINT ( 'NONE',  ( 3.491481338843133355E-15, 1.177311429389551866E-33, 1.000000000000000000 ) ) ;
#264 = DIRECTION ( 'NONE',  ( 4.275831445896959482E-31, 1.000000000000000000, 1.224646799147352961E-16 ) ) ;
#265 = AXIS2_PLACEMENT_3D ( 'NONE', #215, #18, #68 ) ;
#266 = EDGE_CURVE ( 'NONE', #116, #116, #165, .T. ) ;
#267 = APPLICATION_PROTOCOL_DEFINITION ( 'international standard', 'config_control_design', 1994, #143 ) ;
#268 = CARTESIAN_POINT ( 'NONE',  ( 3.491481338843133355E-15, -1.224646799147353207E-16, 1.000000000000000000 ) ) ;
#269 = LOCAL_TIME ( 10, 8, 45.00000000000000000, #38 ) ;
#270 = CARTESIAN_POINT ( 'NONE',  ( 0.0000000000000000000, 0.0000000000000000000, 0.0000000000000000000 ) ) ;
#271 = DATE_AND_TIME ( #276, #269 ) ;
#272 = EDGE_LOOP ( 'NONE', ( #191 ) ) ;
#273 = AXIS2_PLACEMENT_3D ( 'NONE', #239, #196, #195 ) ;
#274 = AXIS2_PLACEMENT_3D ( 'NONE', #167, #247, #224 ) ;
#275 = APPLICATION_CONTEXT ( 'configuration controlled 3d designs of mechanical parts and assemblies' ) ;
#276 = CALENDAR_DATE ( 2021, 16, 12 ) ;
#277 = APPROVAL_DATE_TIME ( #149, #163 ) ;
#278 = ADVANCED_FACE ( 'NONE', ( #94, #145 ), #28, .T. ) ;
#279 = AXIS2_PLACEMENT_3D ( 'NONE', #237, #85, #157 ) ;
#280 = EDGE_LOOP ( 'NONE', ( #256 ) ) ;
#281 = EDGE_CURVE ( 'NONE', #6, #6, #73, .T. ) ;
#282 = FACE_OUTER_BOUND ( 'NONE', #144, .T. ) ;
#283 = CARTESIAN_POINT ( 'NONE',  ( 8.078839165149647799E-16, -2.833675326961643483E-17, 0.2313871500692737115 ) ) ;
ENDSEC;
END-ISO-10303-21;
