ISO-10303-21;
HEADER;
FILE_DESCRIPTION (( 'STEP AP203' ),
    '1' );
FILE_NAME ('30300.step',
    '2021-11-12T06:57:02',
    ( '' ),
    ( '' ),
    'SwSTEP 2.0',
    'SolidWorks 2019',
    '' );
FILE_SCHEMA (( 'CONFIG_CONTROL_DESIGN' ));
ENDSEC;

DATA;
#1 = LOCAL_TIME ( 7, 57, 2.000000000000000000, #82 ) ;
#2 = CARTESIAN_POINT ( 'NONE',  ( 2.500000000000000444, 0.0000000000000000000, 0.09999999999999127642 ) ) ;
#3 = DIRECTION ( 'NONE',  ( 3.491481338843133355E-15, -1.223397583181748052E-16, 1.000000000000000000 ) ) ;
#4 = CARTESIAN_POINT ( 'NONE',  ( 1.745740669421566173E-13, 2.399999999999995914, 49.99999999999998579 ) ) ;
#5 = CIRCLE ( 'NONE', #230, 2.999999999999991562 ) ;
#6 = MANIFOLD_SOLID_BREP ( 'Corps-Déplacer/Copier1[1]', #189 ) ;
#7 = APPROVAL_STATUS ( 'not_yet_approved' ) ;
#8 = LOCAL_TIME ( 7, 57, 2.000000000000000000, #77 ) ;
#9 = PERSON_AND_ORGANIZATION_ROLE ( 'classification_officer' ) ;
#10 = ADVANCED_FACE ( 'NONE', ( #233, #185 ), #59, .F. ) ;
#11 = DIRECTION ( 'NONE',  ( -4.271469831664863477E-31, -1.000000000000000000, -1.223397583181748298E-16 ) ) ;
#12 = APPROVAL_PERSON_ORGANIZATION ( #136, #238, #21 ) ;
#13 = EDGE_LOOP ( 'NONE', ( #204 ) ) ;
#14 = ADVANCED_FACE ( 'NONE', ( #68 ), #217, .F. ) ;
#15 = ORIENTED_EDGE ( 'NONE', *, *, #39, .T. ) ;
#16 = FACE_OUTER_BOUND ( 'NONE', #205, .T. ) ;
#17 = PERSON_AND_ORGANIZATION ( #165, #83 ) ;
#18 = CARTESIAN_POINT ( 'NONE',  ( -6.413747168845438786E-31, 2.249639673992786412E-32, -1.836970198721029934E-16 ) ) ;
#19 = DATE_TIME_ROLE ( 'creation_date' ) ;
#20 = PLANE ( 'NONE',  #135 ) ;
#21 = APPROVAL_ROLE ( '' ) ;
#22 = DIRECTION ( 'NONE',  ( 0.0000000000000000000, 1.000000000000000000, 0.0000000000000000000 ) ) ;
#23 = DIRECTION ( 'NONE',  ( 0.0000000000000000000, -1.000000000000000000, 0.0000000000000000000 ) ) ;
#24 = APPROVAL_DATE_TIME ( #214, #109 ) ;
#25 = DIRECTION ( 'NONE',  ( 1.000000000000000000, 0.0000000000000000000, 0.0000000000000000000 ) ) ;
#26 = CIRCLE ( 'NONE', #65, 2.399999999999999467 ) ;
#27 = APPROVAL_ROLE ( '' ) ;
#28 = CC_DESIGN_PERSON_AND_ORGANIZATION_ASSIGNMENT ( #81, #55, ( #76 ) ) ;
#29 = FACE_OUTER_BOUND ( 'NONE', #32, .T. ) ;
#30 = PLANE ( 'NONE',  #141 ) ;
#31 = UNCERTAINTY_MEASURE_WITH_UNIT (LENGTH_MEASURE( 1.000000000000000082E-05 ), #153, 'distance_accuracy_value', 'NONE');
#32 = EDGE_LOOP ( 'NONE', ( #160 ) ) ;
#33 = DIRECTION ( 'NONE',  ( 3.491481338843133355E-15, -0.0000000000000000000, 1.000000000000000000 ) ) ;
#34 = EDGE_LOOP ( 'NONE', ( #48 ) ) ;
#35 = FACE_OUTER_BOUND ( 'NONE', #236, .T. ) ;
#36 = ADVANCED_FACE ( 'NONE', ( #183 ), #30, .T. ) ;
#37 = DIRECTION ( 'NONE',  ( 4.275831445896958607E-31, 1.000000000000000000, 1.224646799147353207E-16 ) ) ;
#38 = APPROVAL_PERSON_ORGANIZATION ( #179, #126, #27 ) ;
#39 = EDGE_CURVE ( 'NONE', #149, #149, #5, .T. ) ;
#40 = DIRECTION ( 'NONE',  ( 3.491481338843133355E-15, -0.0000000000000000000, 1.000000000000000000 ) ) ;
#41 = AXIS2_PLACEMENT_3D ( 'NONE', #194, #62, #25 ) ;
#42 = SECURITY_CLASSIFICATION_LEVEL ( 'unclassified' ) ;
#43 = DIRECTION ( 'NONE',  ( -4.275831445896958607E-31, -1.000000000000000000, -1.224646799147353207E-16 ) ) ;
#44 = PERSON_AND_ORGANIZATION ( #165, #83 ) ;
#45 = DIRECTION ( 'NONE',  ( 1.000000000000000000, 0.0000000000000000000, -3.491130995403324278E-15 ) ) ;
#46 = ADVANCED_FACE ( 'NONE', ( #64, #29 ), #154, .T. ) ;
#47 = DIRECTION ( 'NONE',  ( -4.328886684428667775E-31, -1.000000000000000000, -1.223397583181748052E-16 ) ) ;
#48 = ORIENTED_EDGE ( 'NONE', *, *, #175, .F. ) ;
#49 = ADVANCED_FACE ( 'NONE', ( #188, #140 ), #222, .T. ) ;
#50 = DIRECTION ( 'NONE',  ( 4.275831445896958607E-31, 1.000000000000000000, 1.224646799147353207E-16 ) ) ;
#51 = DATE_AND_TIME ( #151, #8 ) ;
#52 = CARTESIAN_POINT ( 'NONE',  ( 1.724791781388508004E-13, -6.049755187787925154E-15, 49.39999999999999858 ) ) ;
#53 = AXIS2_PLACEMENT_3D ( 'NONE', #111, #237, #43 ) ;
#54 = FACE_OUTER_BOUND ( 'NONE', #66, .T. ) ;
#55 = PERSON_AND_ORGANIZATION_ROLE ( 'design_owner' ) ;
#56 = VERTEX_POINT ( 'NONE', #72 ) ;
#57 = APPLICATION_PROTOCOL_DEFINITION ( 'international standard', 'config_control_design', 1994, #91 ) ;
#58 = APPLICATION_PROTOCOL_DEFINITION ( 'international standard', 'config_control_design', 1994, #116 ) ;
#59 = TOROIDAL_SURFACE ( 'NONE', #95, 10.50000000000000000, 8.000000000000003553 ) ;
#60 = CIRCLE ( 'NONE', #212, 2.400000000000002132 ) ;
#61 = APPROVAL_DATE_TIME ( #84, #126 ) ;
#62 = DIRECTION ( 'NONE',  ( 0.0000000000000000000, 0.0000000000000000000, 1.000000000000000000 ) ) ;
#63 = ORIENTED_EDGE ( 'NONE', *, *, #71, .F. ) ;
#64 = FACE_BOUND ( 'NONE', #167, .T. ) ;
#65 = AXIS2_PLACEMENT_3D ( 'NONE', #67, #125, #203 ) ;
#66 = EDGE_LOOP ( 'NONE', ( #63 ) ) ;
#67 = CARTESIAN_POINT ( 'NONE',  ( -4.731839565957903391E-32, 0.0000000000000000000, -1.355252715606880543E-17 ) ) ;
#68 = FACE_OUTER_BOUND ( 'NONE', #13, .T. ) ;
#69 = ADVANCED_BREP_SHAPE_REPRESENTATION ( '30300', ( #6, #168, #41 ), #114 ) ;
#70 = EDGE_LOOP ( 'NONE', ( #146 ) ) ;
#71 = EDGE_CURVE ( 'NONE', #193, #193, #26, .T. ) ;
#72 = CARTESIAN_POINT ( 'NONE',  ( 3.491481338843132724E-14, -2.499999999999999556, 9.999999999999998224 ) ) ;
#73 = CARTESIAN_POINT ( 'NONE',  ( 4.463468607437974810E-14, 2.999999999999993339, 12.78388218141500765 ) ) ;
#74 = LOCAL_TIME ( 7, 57, 2.000000000000000000, #180 ) ;
#75 = VERTEX_POINT ( 'NONE', #113 ) ;
#76 = PRODUCT ( '30300', '30300', '', ( #223 ) ) ;
#77 = COORDINATED_UNIVERSAL_TIME_OFFSET ( 1, 0, .AHEAD. ) ;
#78 =( NAMED_UNIT ( * ) SI_UNIT ( $, .STERADIAN. ) SOLID_ANGLE_UNIT ( ) );
#79 = CC_DESIGN_DATE_AND_TIME_ASSIGNMENT ( #195, #102, ( #182 ) ) ;
#80 = PERSON_AND_ORGANIZATION ( #165, #83 ) ;
#81 = PERSON_AND_ORGANIZATION ( #165, #83 ) ;
#82 = COORDINATED_UNIVERSAL_TIME_OFFSET ( 1, 0, .AHEAD. ) ;
#83 = ORGANIZATION ( 'UNSPECIFIED', 'UNSPECIFIED', '' ) ;
#84 = DATE_AND_TIME ( #157, #1 ) ;
#85 = ORIENTED_EDGE ( 'NONE', *, *, #211, .T. ) ;
#86 = DIRECTION ( 'NONE',  ( -4.275831445896958607E-31, -1.000000000000000000, -1.224646799147353207E-16 ) ) ;
#87 = PRODUCT_DEFINITION ( 'UNKNOWN', '', #225, #148 ) ;
#88 = CARTESIAN_POINT ( 'NONE',  ( 1.724791781388508004E-13, -6.049755187787925154E-15, 49.39999999999999858 ) ) ;
#89 = CARTESIAN_POINT ( 'NONE',  ( 3.491481338843133355E-14, 2.249639673992784496E-32, 10.00000000000000000 ) ) ;
#90 = COORDINATED_UNIVERSAL_TIME_OFFSET ( 1, 0, .AHEAD. ) ;
#91 = APPLICATION_CONTEXT ( 'configuration controlled 3d designs of mechanical parts and assemblies' ) ;
#92 = EDGE_LOOP ( 'NONE', ( #85 ) ) ;
#93 = CALENDAR_DATE ( 2021, 12, 11 ) ;
#94 = CARTESIAN_POINT ( 'NONE',  ( 1.745740669421566173E-13, -6.123233995736764507E-15, 49.99999999999998579 ) ) ;
#95 = AXIS2_PLACEMENT_3D ( 'NONE', #200, #121, #47 ) ;
#96 = CARTESIAN_POINT ( 'NONE',  ( 2.399999999999999467, 0.0000000000000000000, -8.393107740379585703E-15 ) ) ;
#97 = CC_DESIGN_APPROVAL ( #126, ( #182 ) ) ;
#98 = CARTESIAN_POINT ( 'NONE',  ( 1.724791781388508004E-13, 2.999999999999985345, 49.39999999999999858 ) ) ;
#99 = AXIS2_PLACEMENT_3D ( 'NONE', #129, #224, #228 ) ;
#100 = FACE_BOUND ( 'NONE', #215, .T. ) ;
#101 = CIRCLE ( 'NONE', #239, 2.499999999999998224 ) ;
#102 = DATE_TIME_ROLE ( 'classification_date' ) ;
#103 = SHAPE_DEFINITION_REPRESENTATION ( #187, #69 ) ;
#104 = ORIENTED_EDGE ( 'NONE', *, *, #117, .F. ) ;
#105 = CIRCLE ( 'NONE', #120, 2.499999999999998224 ) ;
#106 = CARTESIAN_POINT ( 'NONE',  ( 3.491481338843133355E-16, 0.0000000000000000000, 0.1000000000000000056 ) ) ;
#107 = APPROVAL_DATE_TIME ( #51, #238 ) ;
#108 = ORIENTED_EDGE ( 'NONE', *, *, #218, .F. ) ;
#109 = APPROVAL ( #124, 'UNSPECIFIED' ) ;
#110 = DIRECTION ( 'NONE',  ( 0.0000000000000000000, 1.000000000000000000, 0.0000000000000000000 ) ) ;
#111 = CARTESIAN_POINT ( 'NONE',  ( 3.491481338843133355E-14, 2.249639673992784496E-32, 10.00000000000000000 ) ) ;
#112 = CARTESIAN_POINT ( 'NONE',  ( 1.745740669421566425E-13, 8.677665382962492735E-31, 49.99999999999999289 ) ) ;
#113 = CARTESIAN_POINT ( 'NONE',  ( 3.491481338843132724E-14, -2.499999999999999556, 9.999999999999998224 ) ) ;
#114 =( GEOMETRIC_REPRESENTATION_CONTEXT ( 3 ) GLOBAL_UNCERTAINTY_ASSIGNED_CONTEXT ( ( #31 ) ) GLOBAL_UNIT_ASSIGNED_CONTEXT ( ( #153, #133, #78 ) ) REPRESENTATION_CONTEXT ( 'NONE', 'WORKASPACE' ) );
#115 = VERTEX_POINT ( 'NONE', #4 ) ;
#116 = APPLICATION_CONTEXT ( 'configuration controlled 3d designs of mechanical parts and assemblies' ) ;
#117 = EDGE_CURVE ( 'NONE', #171, #171, #162, .T. ) ;
#118 = APPROVAL_STATUS ( 'not_yet_approved' ) ;
#119 = APPROVAL_ROLE ( '' ) ;
#120 = AXIS2_PLACEMENT_3D ( 'NONE', #130, #176, #226 ) ;
#121 = DIRECTION ( 'NONE',  ( 3.491481338843133355E-15, -1.223397583181748052E-16, 1.000000000000000000 ) ) ;
#122 = CC_DESIGN_DATE_AND_TIME_ASSIGNMENT ( #241, #19, ( #87 ) ) ;
#123 = EDGE_LOOP ( 'NONE', ( #104 ) ) ;
#124 = APPROVAL_STATUS ( 'not_yet_approved' ) ;
#125 = DIRECTION ( 'NONE',  ( 3.491481338843133355E-15, -0.0000000000000000000, 1.000000000000000000 ) ) ;
#126 = APPROVAL ( #7, 'UNSPECIFIED' ) ;
#127 = DIRECTION ( 'NONE',  ( 3.491481338843133355E-15, -1.223397583181748052E-16, 1.000000000000000000 ) ) ;
#128 = ORIENTED_EDGE ( 'NONE', *, *, #218, .T. ) ;
#129 = CARTESIAN_POINT ( 'NONE',  ( 0.0000000000000000000, 0.0000000000000000000, 0.0000000000000000000 ) ) ;
#130 = CARTESIAN_POINT ( 'NONE',  ( 3.491481338843132724E-14, -1.223397583181747953E-15, 9.999999999999998224 ) ) ;
#131 = AXIS2_PLACEMENT_3D ( 'NONE', #181, #145, #11 ) ;
#132 = CC_DESIGN_PERSON_AND_ORGANIZATION_ASSIGNMENT ( #80, #155, ( #225 ) ) ;
#133 =( NAMED_UNIT ( * ) PLANE_ANGLE_UNIT ( ) SI_UNIT ( $, .RADIAN. ) );
#134 = CARTESIAN_POINT ( 'NONE',  ( 3.491481338843132724E-14, -1.223397583181747953E-15, 9.999999999999998224 ) ) ;
#135 = AXIS2_PLACEMENT_3D ( 'NONE', #18, #152, #50 ) ;
#136 = PERSON_AND_ORGANIZATION ( #165, #83 ) ;
#137 = CALENDAR_DATE ( 2021, 12, 11 ) ;
#138 = CC_DESIGN_PERSON_AND_ORGANIZATION_ASSIGNMENT ( #159, #9, ( #182 ) ) ;
#139 = EDGE_LOOP ( 'NONE', ( #108 ) ) ;
#140 = FACE_OUTER_BOUND ( 'NONE', #142, .T. ) ;
#141 = AXIS2_PLACEMENT_3D ( 'NONE', #89, #186, #86 ) ;
#142 = EDGE_LOOP ( 'NONE', ( #143 ) ) ;
#143 = ORIENTED_EDGE ( 'NONE', *, *, #170, .T. ) ;
#144 = LOCAL_TIME ( 7, 57, 2.000000000000000000, #208 ) ;
#145 = DIRECTION ( 'NONE',  ( 3.491481338843133355E-15, -1.223397583181748052E-16, 1.000000000000000000 ) ) ;
#146 = ORIENTED_EDGE ( 'NONE', *, *, #117, .T. ) ;
#147 = CIRCLE ( 'NONE', #213, 2.500000000000000000 ) ;
#148 = DESIGN_CONTEXT ( 'detailed design', #91, 'design' ) ;
#149 = VERTEX_POINT ( 'NONE', #98 ) ;
#150 = CC_DESIGN_APPROVAL ( #109, ( #225 ) ) ;
#151 = CALENDAR_DATE ( 2021, 12, 11 ) ;
#152 = DIRECTION ( 'NONE',  ( -3.491481338843133355E-15, 1.224646799147353207E-16, -1.000000000000000000 ) ) ;
#153 =( LENGTH_UNIT ( ) NAMED_UNIT ( * ) SI_UNIT ( .MILLI., .METRE. ) );
#154 = CONICAL_SURFACE ( 'NONE', #216, 2.500000000000000000, 0.7853981633974517207 ) ;
#155 = PERSON_AND_ORGANIZATION_ROLE ( 'creator' ) ;
#156 = ADVANCED_FACE ( 'NONE', ( #16, #190 ), #169, .T. ) ;
#157 = CALENDAR_DATE ( 2021, 12, 11 ) ;
#158 = CC_DESIGN_SECURITY_CLASSIFICATION ( #182, ( #225 ) ) ;
#159 = PERSON_AND_ORGANIZATION ( #165, #83 ) ;
#160 = ORIENTED_EDGE ( 'NONE', *, *, #170, .F. ) ;
#161 = ORIENTED_EDGE ( 'NONE', *, *, #39, .F. ) ;
#162 = CIRCLE ( 'NONE', #196, 2.999999999999995559 ) ;
#163 = ORIENTED_EDGE ( 'NONE', *, *, #71, .T. ) ;
#164 = DIRECTION ( 'NONE',  ( -3.491481338843133355E-15, 1.224646799147353207E-16, -1.000000000000000000 ) ) ;
#165 = PERSON ( 'UNSPECIFIED', 'UNSPECIFIED', 'UNSPECIFIED', ('UNSPECIFIED'), ('UNSPECIFIED'), ('UNSPECIFIED') ) ;
#166 = AXIS2_PLACEMENT_3D ( 'NONE', #52, #207, #22 ) ;
#167 = EDGE_LOOP ( 'NONE', ( #163 ) ) ;
#168 = MANIFOLD_SOLID_BREP ( 'Corps-Déplacer/Copier1[2]', #177 ) ;
#169 = CYLINDRICAL_SURFACE ( 'NONE', #99, 2.999999999999995559 ) ;
#170 = EDGE_CURVE ( 'NONE', #174, #174, #147, .T. ) ;
#171 = VERTEX_POINT ( 'NONE', #73 ) ;
#172 = CONICAL_SURFACE ( 'NONE', #166, 2.999999999999991562, 0.7853981633974482790 ) ;
#173 = DIRECTION ( 'NONE',  ( 1.000000000000000000, 0.0000000000000000000, -3.491130995403324278E-15 ) ) ;
#174 = VERTEX_POINT ( 'NONE', #2 ) ;
#175 = EDGE_CURVE ( 'NONE', #75, #75, #101, .T. ) ;
#176 = DIRECTION ( 'NONE',  ( 3.491481338843133355E-15, -1.223397583181748052E-16, 1.000000000000000000 ) ) ;
#177 = CLOSED_SHELL ( 'NONE', ( #49, #36, #46, #227 ) ) ;
#178 = CC_DESIGN_PERSON_AND_ORGANIZATION_ASSIGNMENT ( #17, #219, ( #87 ) ) ;
#179 = PERSON_AND_ORGANIZATION ( #165, #83 ) ;
#180 = COORDINATED_UNIVERSAL_TIME_OFFSET ( 1, 0, .AHEAD. ) ;
#181 = CARTESIAN_POINT ( 'NONE',  ( 0.0000000000000000000, 0.0000000000000000000, 0.0000000000000000000 ) ) ;
#182 = SECURITY_CLASSIFICATION ( '', '', #42 ) ;
#183 = FACE_OUTER_BOUND ( 'NONE', #235, .T. ) ;
#184 = ADVANCED_FACE ( 'NONE', ( #100, #35 ), #172, .T. ) ;
#185 = FACE_OUTER_BOUND ( 'NONE', #92, .T. ) ;
#186 = DIRECTION ( 'NONE',  ( 3.491481338843133355E-15, -1.224646799147353207E-16, 1.000000000000000000 ) ) ;
#187 = PRODUCT_DEFINITION_SHAPE ( 'NONE', 'NONE',  #87 ) ;
#188 = FACE_OUTER_BOUND ( 'NONE', #34, .T. ) ;
#189 = CLOSED_SHELL ( 'NONE', ( #156, #184, #198, #10, #14 ) ) ;
#190 = FACE_OUTER_BOUND ( 'NONE', #70, .T. ) ;
#191 = DIRECTION ( 'NONE',  ( -3.491481338843133355E-15, 1.224646799147353207E-16, -1.000000000000000000 ) ) ;
#192 = LOCAL_TIME ( 7, 57, 2.000000000000000000, #90 ) ;
#193 = VERTEX_POINT ( 'NONE', #96 ) ;
#194 = CARTESIAN_POINT ( 'NONE',  ( 0.0000000000000000000, 0.0000000000000000000, 0.0000000000000000000 ) ) ;
#195 = DATE_AND_TIME ( #199, #74 ) ;
#196 = AXIS2_PLACEMENT_3D ( 'NONE', #221, #127, #110 ) ;
#197 = PERSON_AND_ORGANIZATION_ROLE ( 'design_supplier' ) ;
#198 = ADVANCED_FACE ( 'NONE', ( #243 ), #210, .F. ) ;
#199 = CALENDAR_DATE ( 2021, 12, 11 ) ;
#200 = CARTESIAN_POINT ( 'NONE',  ( 3.491481338843132724E-14, -1.734723475976807094E-15, 9.999999999999998224 ) ) ;
#201 = DIRECTION ( 'NONE',  ( 0.0000000000000000000, 1.000000000000000000, 0.0000000000000000000 ) ) ;
#202 = AXIS2_PLACEMENT_3D ( 'NONE', #112, #191, #37 ) ;
#203 = DIRECTION ( 'NONE',  ( 1.000000000000000000, 0.0000000000000000000, -3.491481338843132961E-15 ) ) ;
#204 = ORIENTED_EDGE ( 'NONE', *, *, #211, .F. ) ;
#205 = EDGE_LOOP ( 'NONE', ( #15 ) ) ;
#206 = CARTESIAN_POINT ( 'NONE',  ( 3.491481338843133355E-16, 0.0000000000000000000, 0.1000000000000000056 ) ) ;
#207 = DIRECTION ( 'NONE',  ( -3.491481338843133355E-15, 1.224646799147353207E-16, -1.000000000000000000 ) ) ;
#208 = COORDINATED_UNIVERSAL_TIME_OFFSET ( 1, 0, .AHEAD. ) ;
#209 = DIRECTION ( 'NONE',  ( -3.491481338843133355E-15, 1.224646799147353207E-16, -1.000000000000000000 ) ) ;
#210 = PLANE ( 'NONE',  #202 ) ;
#211 = EDGE_CURVE ( 'NONE', #56, #56, #105, .T. ) ;
#212 = AXIS2_PLACEMENT_3D ( 'NONE', #94, #209, #242 ) ;
#213 = AXIS2_PLACEMENT_3D ( 'NONE', #206, #40, #173 ) ;
#214 = DATE_AND_TIME ( #137, #144 ) ;
#215 = EDGE_LOOP ( 'NONE', ( #128 ) ) ;
#216 = AXIS2_PLACEMENT_3D ( 'NONE', #106, #33, #45 ) ;
#217 = PLANE ( 'NONE',  #53 ) ;
#218 = EDGE_CURVE ( 'NONE', #115, #115, #60, .T. ) ;
#219 = PERSON_AND_ORGANIZATION_ROLE ( 'creator' ) ;
#220 = APPROVAL_PERSON_ORGANIZATION ( #44, #109, #119 ) ;
#221 = CARTESIAN_POINT ( 'NONE',  ( 4.463468607437974810E-14, -2.075302949237392662E-15, 12.78388218141500765 ) ) ;
#222 = CYLINDRICAL_SURFACE ( 'NONE', #131, 2.499999999999999112 ) ;
#223 = MECHANICAL_CONTEXT ( 'NONE', #116, 'mechanical' ) ;
#224 = DIRECTION ( 'NONE',  ( -3.491481338843133355E-15, 1.224646799147353207E-16, -1.000000000000000000 ) ) ;
#225 = PRODUCT_DEFINITION_FORMATION_WITH_SPECIFIED_SOURCE ( 'ANY', '', #76, .NOT_KNOWN. ) ;
#226 = DIRECTION ( 'NONE',  ( 0.0000000000000000000, -1.000000000000000000, 0.0000000000000000000 ) ) ;
#227 = ADVANCED_FACE ( 'NONE', ( #54 ), #20, .T. ) ;
#228 = DIRECTION ( 'NONE',  ( 4.275831445896959482E-31, 1.000000000000000000, 1.224646799147353207E-16 ) ) ;
#229 = CC_DESIGN_PERSON_AND_ORGANIZATION_ASSIGNMENT ( #231, #197, ( #225 ) ) ;
#230 = AXIS2_PLACEMENT_3D ( 'NONE', #88, #164, #201 ) ;
#231 = PERSON_AND_ORGANIZATION ( #165, #83 ) ;
#232 = CC_DESIGN_APPROVAL ( #238, ( #87 ) ) ;
#233 = FACE_OUTER_BOUND ( 'NONE', #123, .T. ) ;
#234 = PRODUCT_RELATED_PRODUCT_CATEGORY ( 'detail', '', ( #76 ) ) ;
#235 = EDGE_LOOP ( 'NONE', ( #240 ) ) ;
#236 = EDGE_LOOP ( 'NONE', ( #161 ) ) ;
#237 = DIRECTION ( 'NONE',  ( 3.491481338843133355E-15, -1.224646799147353207E-16, 1.000000000000000000 ) ) ;
#238 = APPROVAL ( #118, 'UNSPECIFIED' ) ;
#239 = AXIS2_PLACEMENT_3D ( 'NONE', #134, #3, #23 ) ;
#240 = ORIENTED_EDGE ( 'NONE', *, *, #175, .T. ) ;
#241 = DATE_AND_TIME ( #93, #192 ) ;
#242 = DIRECTION ( 'NONE',  ( 0.0000000000000000000, 1.000000000000000000, 0.0000000000000000000 ) ) ;
#243 = FACE_OUTER_BOUND ( 'NONE', #139, .T. ) ;
ENDSEC;
END-ISO-10303-21;
