ISO-10303-21;
HEADER;
FILE_DESCRIPTION (( 'STEP AP203' ),
    '1' );
FILE_NAME ('3030.step',
    '2021-12-06T12:58:40',
    ( '' ),
    ( '' ),
    'SwSTEP 2.0',
    'SolidWorks 2019',
    '' );
FILE_SCHEMA (( 'CONFIG_CONTROL_DESIGN' ));
ENDSEC;

DATA;
#1 = APPROVAL_PERSON_ORGANIZATION ( #26, #129, #97 ) ;
#2 = PRODUCT ( '3030', '3030', '', ( #47 ) ) ;
#3 = MANIFOLD_SOLID_BREP ( 'Corps-Déplacer/Copier1', #130 ) ;
#4 = ORIENTED_EDGE ( 'NONE', *, *, #43, .F. ) ;
#5 = FACE_OUTER_BOUND ( 'NONE', #6, .T. ) ;
#6 = EDGE_LOOP ( 'NONE', ( #128 ) ) ;
#7 = DESIGN_CONTEXT ( 'detailed design', #55, 'design' ) ;
#8 = EDGE_LOOP ( 'NONE', ( #45 ) ) ;
#9 = APPROVAL_ROLE ( '' ) ;
#10 = CC_DESIGN_DATE_AND_TIME_ASSIGNMENT ( #39, #151, ( #136 ) ) ;
#11 = DATE_AND_TIME ( #167, #141 ) ;
#12 = FACE_OUTER_BOUND ( 'NONE', #127, .T. ) ;
#13 = PRODUCT_RELATED_PRODUCT_CATEGORY ( 'detail', '', ( #2 ) ) ;
#14 = CALENDAR_DATE ( 2021, 6, 12 ) ;
#15 = PERSON_AND_ORGANIZATION_ROLE ( 'creator' ) ;
#16 = ORIENTED_EDGE ( 'NONE', *, *, #86, .T. ) ;
#17 = DIRECTION ( 'NONE',  ( 7.839024317477753066E-31, 1.000000000000000000, 2.245185798436813022E-16 ) ) ;
#18 = EDGE_LOOP ( 'NONE', ( #140 ) ) ;
#19 = APPLICATION_PROTOCOL_DEFINITION ( 'international standard', 'config_control_design', 1994, #55 ) ;
#20 = CARTESIAN_POINT ( 'NONE',  ( 2.094888803305880013E-15, 25.00000000000000000, 0.6000000000000000888 ) ) ;
#21 = APPROVAL_PERSON_ORGANIZATION ( #131, #103, #9 ) ;
#22 = CARTESIAN_POINT ( 'NONE',  ( 2.094888803305860686E-15, -1.347111479062075191E-16, 0.5999999999999944267 ) ) ;
#23 = DIRECTION ( 'NONE',  ( 7.839024317477753066E-31, 1.000000000000000000, 2.245185798436813022E-16 ) ) ;
#24 = AXIS2_PLACEMENT_3D ( 'NONE', #162, #44, #98 ) ;
#25 = COORDINATED_UNIVERSAL_TIME_OFFSET ( 1, 0, .AHEAD. ) ;
#26 = PERSON_AND_ORGANIZATION ( #126, #135 ) ;
#27 = CC_DESIGN_PERSON_AND_ORGANIZATION_ASSIGNMENT ( #121, #15, ( #34 ) ) ;
#28 = CARTESIAN_POINT ( 'NONE',  ( 0.0000000000000000000, 0.0000000000000000000, 0.0000000000000000000 ) ) ;
#29 = AXIS2_PLACEMENT_3D ( 'NONE', #156, #115, #35 ) ;
#30 = APPLICATION_PROTOCOL_DEFINITION ( 'international standard', 'config_control_design', 1994, #133 ) ;
#31 = CYLINDRICAL_SURFACE ( 'NONE', #146, 25.00000000000000000 ) ;
#32 = DIRECTION ( 'NONE',  ( 0.0000000000000000000, 0.0000000000000000000, 1.000000000000000000 ) ) ;
#33 = AXIS2_PLACEMENT_3D ( 'NONE', #28, #91, #17 ) ;
#34 = PRODUCT_DEFINITION_FORMATION_WITH_SPECIFIED_SOURCE ( 'ANY', '', #2, .NOT_KNOWN. ) ;
#35 = DIRECTION ( 'NONE',  ( 7.839024317477753066E-31, 1.000000000000000000, 2.245185798436813022E-16 ) ) ;
#36 = VERTEX_POINT ( 'NONE', #46 ) ;
#37 = EDGE_CURVE ( 'NONE', #117, #117, #84, .T. ) ;
#38 = CALENDAR_DATE ( 2021, 6, 12 ) ;
#39 = DATE_AND_TIME ( #14, #57 ) ;
#40 = CC_DESIGN_PERSON_AND_ORGANIZATION_ASSIGNMENT ( #106, #102, ( #136 ) ) ;
#41 = SHAPE_DEFINITION_REPRESENTATION ( #152, #166 ) ;
#42 = LOCAL_TIME ( 13, 58, 40.00000000000000000, #137 ) ;
#43 = EDGE_CURVE ( 'NONE', #165, #165, #100, .T. ) ;
#44 = DIRECTION ( 'NONE',  ( -3.491481338843133355E-15, 2.245185798436813022E-16, -1.000000000000000000 ) ) ;
#45 = ORIENTED_EDGE ( 'NONE', *, *, #37, .T. ) ;
#46 = CARTESIAN_POINT ( 'NONE',  ( 0.0000000000000000000, 6.500000000000000000, 0.0000000000000000000 ) ) ;
#47 = MECHANICAL_CONTEXT ( 'NONE', #133, 'mechanical' ) ;
#48 = FACE_BOUND ( 'NONE', #72, .T. ) ;
#49 = CARTESIAN_POINT ( 'NONE',  ( 0.0000000000000000000, 25.00000000000000000, 0.0000000000000000000 ) ) ;
#50 = AXIS2_PLACEMENT_3D ( 'NONE', #70, #58, #114 ) ;
#51 = SECURITY_CLASSIFICATION ( '', '', #68 ) ;
#52 = APPROVAL_DATE_TIME ( #11, #103 ) ;
#53 = ADVANCED_FACE ( 'NONE', ( #125, #153 ), #163, .F. ) ;
#54 = DATE_TIME_ROLE ( 'classification_date' ) ;
#55 = APPLICATION_CONTEXT ( 'configuration controlled 3d designs of mechanical parts and assemblies' ) ;
#56 = PERSON_AND_ORGANIZATION ( #126, #135 ) ;
#57 = LOCAL_TIME ( 13, 58, 40.00000000000000000, #87 ) ;
#58 = DIRECTION ( 'NONE',  ( -3.491481338843133355E-15, 2.245185798436813022E-16, -1.000000000000000000 ) ) ;
#59 = EDGE_LOOP ( 'NONE', ( #16 ) ) ;
#60 = DIRECTION ( 'NONE',  ( 7.857794173099922280E-31, 1.000000000000000000, 2.255140518769849223E-16 ) ) ;
#61 = DIRECTION ( 'NONE',  ( -3.491481338843133355E-15, 2.245185798436813022E-16, -1.000000000000000000 ) ) ;
#62 = ADVANCED_FACE ( 'NONE', ( #73, #5 ), #99, .T. ) ;
#63 = COORDINATED_UNIVERSAL_TIME_OFFSET ( 1, 0, .AHEAD. ) ;
#64 =( NAMED_UNIT ( * ) SI_UNIT ( $, .STERADIAN. ) SOLID_ANGLE_UNIT ( ) );
#65 = PERSON_AND_ORGANIZATION ( #126, #135 ) ;
#66 = ADVANCED_FACE ( 'NONE', ( #118, #12 ), #31, .T. ) ;
#67 = COORDINATED_UNIVERSAL_TIME_OFFSET ( 1, 0, .AHEAD. ) ;
#68 = SECURITY_CLASSIFICATION_LEVEL ( 'unclassified' ) ;
#69 = AXIS2_PLACEMENT_3D ( 'NONE', #154, #149, #143 ) ;
#70 = CARTESIAN_POINT ( 'NONE',  ( 2.094888803305875280E-15, -1.347111479062084559E-16, 0.5999999999999986455 ) ) ;
#71 = AXIS2_PLACEMENT_3D ( 'NONE', #155, #94, #144 ) ;
#72 = EDGE_LOOP ( 'NONE', ( #90 ) ) ;
#73 = FACE_BOUND ( 'NONE', #8, .T. ) ;
#74 = CC_DESIGN_DATE_AND_TIME_ASSIGNMENT ( #169, #54, ( #51 ) ) ;
#75 = ORIENTED_EDGE ( 'NONE', *, *, #37, .F. ) ;
#76 = LOCAL_TIME ( 13, 58, 40.00000000000000000, #25 ) ;
#77 = CC_DESIGN_PERSON_AND_ORGANIZATION_ASSIGNMENT ( #56, #160, ( #51 ) ) ;
#78 = CARTESIAN_POINT ( 'NONE',  ( 0.0000000000000000000, 0.0000000000000000000, 0.0000000000000000000 ) ) ;
#79 = CIRCLE ( 'NONE', #161, 25.00000000000000000 ) ;
#80 = CC_DESIGN_APPROVAL ( #103, ( #136 ) ) ;
#81 = PERSON_AND_ORGANIZATION ( #126, #135 ) ;
#82 = FACE_OUTER_BOUND ( 'NONE', #142, .T. ) ;
#83 = CARTESIAN_POINT ( 'NONE',  ( 2.094888803305880013E-15, 6.499999999999999112, 0.6000000000000000888 ) ) ;
#84 = CIRCLE ( 'NONE', #50, 6.499999999999999112 ) ;
#85 = APPROVAL_DATE_TIME ( #123, #150 ) ;
#86 = EDGE_CURVE ( 'NONE', #104, #104, #79, .T. ) ;
#87 = COORDINATED_UNIVERSAL_TIME_OFFSET ( 1, 0, .AHEAD. ) ;
#88 = CC_DESIGN_PERSON_AND_ORGANIZATION_ASSIGNMENT ( #65, #158, ( #34 ) ) ;
#89 = EDGE_LOOP ( 'NONE', ( #75 ) ) ;
#90 = ORIENTED_EDGE ( 'NONE', *, *, #107, .F. ) ;
#91 = DIRECTION ( 'NONE',  ( -3.491481338843133355E-15, 2.245185798436813022E-16, -1.000000000000000000 ) ) ;
#92 =( GEOMETRIC_REPRESENTATION_CONTEXT ( 3 ) GLOBAL_UNCERTAINTY_ASSIGNED_CONTEXT ( ( #108 ) ) GLOBAL_UNIT_ASSIGNED_CONTEXT ( ( #105, #134, #64 ) ) REPRESENTATION_CONTEXT ( 'NONE', 'WORKASPACE' ) );
#93 = PERSON_AND_ORGANIZATION_ROLE ( 'design_owner' ) ;
#94 = DIRECTION ( 'NONE',  ( -3.491481338843133355E-15, 2.245185798436813022E-16, -1.000000000000000000 ) ) ;
#95 = DIRECTION ( 'NONE',  ( 1.000000000000000000, 0.0000000000000000000, 0.0000000000000000000 ) ) ;
#96 = DATE_AND_TIME ( #111, #101 ) ;
#97 = APPROVAL_ROLE ( '' ) ;
#98 = DIRECTION ( 'NONE',  ( 7.839024317477753066E-31, 1.000000000000000000, 2.245185798436813022E-16 ) ) ;
#99 = PLANE ( 'NONE',  #69 ) ;
#100 = CIRCLE ( 'NONE', #24, 25.00000000000000000 ) ;
#101 = LOCAL_TIME ( 13, 58, 40.00000000000000000, #67 ) ;
#102 = PERSON_AND_ORGANIZATION_ROLE ( 'creator' ) ;
#103 = APPROVAL ( #132, 'UNSPECIFIED' ) ;
#104 = VERTEX_POINT ( 'NONE', #20 ) ;
#105 =( LENGTH_UNIT ( ) NAMED_UNIT ( * ) SI_UNIT ( .MILLI., .METRE. ) );
#106 = PERSON_AND_ORGANIZATION ( #126, #135 ) ;
#107 = EDGE_CURVE ( 'NONE', #36, #36, #164, .T. ) ;
#108 = UNCERTAINTY_MEASURE_WITH_UNIT (LENGTH_MEASURE( 1.000000000000000082E-05 ), #105, 'distance_accuracy_value', 'NONE');
#109 = APPROVAL_DATE_TIME ( #96, #129 ) ;
#110 = PERSON_AND_ORGANIZATION ( #126, #135 ) ;
#111 = CALENDAR_DATE ( 2021, 6, 12 ) ;
#112 = AXIS2_PLACEMENT_3D ( 'NONE', #78, #32, #95 ) ;
#113 = ORIENTED_EDGE ( 'NONE', *, *, #43, .T. ) ;
#114 = DIRECTION ( 'NONE',  ( 7.703719777548944288E-31, 1.000000000000000000, 2.168404344971009115E-16 ) ) ;
#115 = DIRECTION ( 'NONE',  ( -3.491481338843133355E-15, 2.245185798436813022E-16, -1.000000000000000000 ) ) ;
#116 = ADVANCED_FACE ( 'NONE', ( #82, #48 ), #145, .T. ) ;
#117 = VERTEX_POINT ( 'NONE', #83 ) ;
#118 = FACE_OUTER_BOUND ( 'NONE', #59, .T. ) ;
#119 = DIRECTION ( 'NONE',  ( -3.491481338843133355E-15, 2.245185798436813022E-16, -1.000000000000000000 ) ) ;
#120 = APPROVAL_STATUS ( 'not_yet_approved' ) ;
#121 = PERSON_AND_ORGANIZATION ( #126, #135 ) ;
#122 = CALENDAR_DATE ( 2021, 6, 12 ) ;
#123 = DATE_AND_TIME ( #122, #42 ) ;
#124 = CC_DESIGN_SECURITY_CLASSIFICATION ( #51, ( #34 ) ) ;
#125 = FACE_OUTER_BOUND ( 'NONE', #18, .T. ) ;
#126 = PERSON ( 'UNSPECIFIED', 'UNSPECIFIED', 'UNSPECIFIED', ('UNSPECIFIED'), ('UNSPECIFIED'), ('UNSPECIFIED') ) ;
#127 = EDGE_LOOP ( 'NONE', ( #4 ) ) ;
#128 = ORIENTED_EDGE ( 'NONE', *, *, #86, .F. ) ;
#129 = APPROVAL ( #139, 'UNSPECIFIED' ) ;
#130 = CLOSED_SHELL ( 'NONE', ( #116, #66, #62, #53 ) ) ;
#131 = PERSON_AND_ORGANIZATION ( #126, #135 ) ;
#132 = APPROVAL_STATUS ( 'not_yet_approved' ) ;
#133 = APPLICATION_CONTEXT ( 'configuration controlled 3d designs of mechanical parts and assemblies' ) ;
#134 =( NAMED_UNIT ( * ) PLANE_ANGLE_UNIT ( ) SI_UNIT ( $, .RADIAN. ) );
#135 = ORGANIZATION ( 'UNSPECIFIED', 'UNSPECIFIED', '' ) ;
#136 = PRODUCT_DEFINITION ( 'UNKNOWN', '', #34, #7 ) ;
#137 = COORDINATED_UNIVERSAL_TIME_OFFSET ( 1, 0, .AHEAD. ) ;
#138 = APPROVAL_PERSON_ORGANIZATION ( #110, #150, #159 ) ;
#139 = APPROVAL_STATUS ( 'not_yet_approved' ) ;
#140 = ORIENTED_EDGE ( 'NONE', *, *, #107, .T. ) ;
#141 = LOCAL_TIME ( 13, 58, 40.00000000000000000, #63 ) ;
#142 = EDGE_LOOP ( 'NONE', ( #113 ) ) ;
#143 = DIRECTION ( 'NONE',  ( -7.839024317477753066E-31, -1.000000000000000000, -2.245185798436813022E-16 ) ) ;
#144 = DIRECTION ( 'NONE',  ( 7.839024317477753066E-31, 1.000000000000000000, 2.245185798436813022E-16 ) ) ;
#145 = PLANE ( 'NONE',  #71 ) ;
#146 = AXIS2_PLACEMENT_3D ( 'NONE', #148, #61, #23 ) ;
#147 = CC_DESIGN_APPROVAL ( #150, ( #51 ) ) ;
#148 = CARTESIAN_POINT ( 'NONE',  ( 0.0000000000000000000, 0.0000000000000000000, 0.0000000000000000000 ) ) ;
#149 = DIRECTION ( 'NONE',  ( 3.491481338843133355E-15, -2.245185798436813022E-16, 1.000000000000000000 ) ) ;
#150 = APPROVAL ( #120, 'UNSPECIFIED' ) ;
#151 = DATE_TIME_ROLE ( 'creation_date' ) ;
#152 = PRODUCT_DEFINITION_SHAPE ( 'NONE', 'NONE',  #136 ) ;
#153 = FACE_OUTER_BOUND ( 'NONE', #89, .T. ) ;
#154 = CARTESIAN_POINT ( 'NONE',  ( 2.094888803305872913E-15, 6.499999999999999112, 0.5999999999999979794 ) ) ;
#155 = CARTESIAN_POINT ( 'NONE',  ( -7.251097493666922725E-30, 6.500000000000000000, -2.076796863554052193E-15 ) ) ;
#156 = CARTESIAN_POINT ( 'NONE',  ( -5.095365806360539668E-30, 3.276558525176526793E-31, -1.459370768983928365E-15 ) ) ;
#157 = CC_DESIGN_PERSON_AND_ORGANIZATION_ASSIGNMENT ( #81, #93, ( #2 ) ) ;
#158 = PERSON_AND_ORGANIZATION_ROLE ( 'design_supplier' ) ;
#159 = APPROVAL_ROLE ( '' ) ;
#160 = PERSON_AND_ORGANIZATION_ROLE ( 'classification_officer' ) ;
#161 = AXIS2_PLACEMENT_3D ( 'NONE', #22, #119, #60 ) ;
#162 = CARTESIAN_POINT ( 'NONE',  ( -1.959756079369438302E-29, 1.260214817375587599E-30, -5.612964496092033146E-15 ) ) ;
#163 = CYLINDRICAL_SURFACE ( 'NONE', #33, 6.499999999999999112 ) ;
#164 = CIRCLE ( 'NONE', #29, 6.500000000000000000 ) ;
#165 = VERTEX_POINT ( 'NONE', #49 ) ;
#166 = ADVANCED_BREP_SHAPE_REPRESENTATION ( '3030', ( #3, #112 ), #92 ) ;
#167 = CALENDAR_DATE ( 2021, 6, 12 ) ;
#168 = CC_DESIGN_APPROVAL ( #129, ( #34 ) ) ;
#169 = DATE_AND_TIME ( #38, #76 ) ;
ENDSEC;
END-ISO-10303-21;
