ISO-10303-21;
HEADER;
FILE_DESCRIPTION (( 'STEP AP203' ),
    '1' );
FILE_NAME ('303.step',
    '2021-09-03T07:21:56',
    ( '' ),
    ( '' ),
    'SwSTEP 2.0',
    'SolidWorks 2019',
    '' );
FILE_SCHEMA (( 'CONFIG_CONTROL_DESIGN' ));
ENDSEC;

DATA;
#1 = VECTOR ( 'NONE', #63, 1000.000000000000000 ) ;
#2 = MECHANICAL_CONTEXT ( 'NONE', #50, 'mechanical' ) ;
#3 = EDGE_CURVE ( 'NONE', #329, #274, #39, .T. ) ;
#4 = VERTEX_POINT ( 'NONE', #246 ) ;
#5 = DATE_TIME_ROLE ( 'creation_date' ) ;
#6 = DIRECTION ( 'NONE',  ( 0.0000000000000000000, 1.000000000000000000, 0.0000000000000000000 ) ) ;
#7 = ORIENTED_EDGE ( 'NONE', *, *, #27, .T. ) ;
#8 = AXIS2_PLACEMENT_3D ( 'NONE', #142, #301, #165 ) ;
#9 = FACE_OUTER_BOUND ( 'NONE', #208, .T. ) ;
#10 = EDGE_CURVE ( 'NONE', #95, #329, #249, .T. ) ;
#11 = FACE_OUTER_BOUND ( 'NONE', #77, .T. ) ;
#12 = DIRECTION ( 'NONE',  ( -3.491481338843133355E-15, 1.224646799147353207E-16, -1.000000000000000000 ) ) ;
#13 = CARTESIAN_POINT ( 'NONE',  ( 2.025059176529017346E-13, 1.312289809829112270E-32, 58.00000000000000000 ) ) ;
#14 = LOCAL_TIME ( 9, 21, 56.00000000000000000, #204 ) ;
#15 = PRODUCT_DEFINITION_SHAPE ( 'NONE', 'NONE',  #42 ) ;
#16 = PLANE ( 'NONE',  #111 ) ;
#17 = APPROVAL ( #185, 'UNSPECIFIED' ) ;
#18 = AXIS2_PLACEMENT_3D ( 'NONE', #125, #334, #212 ) ;
#19 = ORIENTED_EDGE ( 'NONE', *, *, #227, .T. ) ;
#20 = ORIENTED_EDGE ( 'NONE', *, *, #201, .T. ) ;
#21 = ORIENTED_EDGE ( 'NONE', *, *, #282, .F. ) ;
#22 = COORDINATED_UNIVERSAL_TIME_OFFSET ( 1, 0, .AHEAD. ) ;
#23 = CIRCLE ( 'NONE', #119, 2.249999999999991118 ) ;
#24 = AXIS2_PLACEMENT_3D ( 'NONE', #235, #258, #337 ) ;
#25 = VECTOR ( 'NONE', #233, 1000.000000000000000 ) ;
#26 = CARTESIAN_POINT ( 'NONE',  ( 6.284666409917640040E-14, 1.687229755494579682E-32, 18.00000000000000000 ) ) ;
#27 = EDGE_CURVE ( 'NONE', #280, #320, #328, .T. ) ;
#28 = AXIS2_PLACEMENT_3D ( 'NONE', #295, #241, #324 ) ;
#29 = DIRECTION ( 'NONE',  ( -2.382254525458701298E-15, -0.7071067811865515695, -0.7071067811865435759 ) ) ;
#30 = ORIENTED_EDGE ( 'NONE', *, *, #91, .T. ) ;
#31 = APPROVAL_STATUS ( 'not_yet_approved' ) ;
#32 = EDGE_CURVE ( 'NONE', #198, #35, #23, .T. ) ;
#33 = DIRECTION ( 'NONE',  ( -3.423875456688436032E-31, -1.000000000000000000, -9.637352644315642081E-17 ) ) ;
#34 = AXIS2_PLACEMENT_3D ( 'NONE', #78, #156, #262 ) ;
#35 = VERTEX_POINT ( 'NONE', #146 ) ;
#36 = DIRECTION ( 'NONE',  ( -3.491481338843133355E-15, 1.224646799147353207E-16, -1.000000000000000000 ) ) ;
#37 = CARTESIAN_POINT ( 'NONE',  ( 2.755455298081522591E-16, -2.249999999999989786, -2.755455298081541327E-16 ) ) ;
#38 = CARTESIAN_POINT ( 'NONE',  ( 4.720260686806062908E-15, -2.249999999999988898, 1.351936392812018495 ) ) ;
#39 = CIRCLE ( 'NONE', #232, 2.249999999999988898 ) ;
#40 = ORIENTED_EDGE ( 'NONE', *, *, #188, .T. ) ;
#41 = CARTESIAN_POINT ( 'NONE',  ( 0.0000000000000000000, 0.0000000000000000000, 0.0000000000000000000 ) ) ;
#42 = PRODUCT_DEFINITION ( 'UNKNOWN', '', #211, #313 ) ;
#43 = CIRCLE ( 'NONE', #331, 2.249999999999991118 ) ;
#44 = VECTOR ( 'NONE', #287, 999.9999999999998863 ) ;
#45 = ORIENTED_EDGE ( 'NONE', *, *, #32, .F. ) ;
#46 = DIRECTION ( 'NONE',  ( -3.491481338843133355E-15, 1.224646799147353207E-16, -1.000000000000000000 ) ) ;
#47 = AXIS2_PLACEMENT_3D ( 'NONE', #224, #144, #190 ) ;
#48 = ORGANIZATION ( 'UNSPECIFIED', 'UNSPECIFIED', '' ) ;
#49 = MANIFOLD_SOLID_BREP ( 'Corps-Déplacer/Copier1[2]', #319 ) ;
#50 = APPLICATION_CONTEXT ( 'configuration controlled 3d designs of mechanical parts and assemblies' ) ;
#51 = PERSON_AND_ORGANIZATION ( #229, #48 ) ;
#52 = ADVANCED_FACE ( 'NONE', ( #251 ), #200, .T. ) ;
#53 = CARTESIAN_POINT ( 'NONE',  ( 2.007601769834801995E-13, -7.041719095097282063E-15, 57.50000000000000711 ) ) ;
#54 = ORIENTED_EDGE ( 'NONE', *, *, #27, .F. ) ;
#55 = DATE_AND_TIME ( #321, #134 ) ;
#56 = DIRECTION ( 'NONE',  ( -3.491481338843133355E-15, 1.224646799147353207E-16, -1.000000000000000000 ) ) ;
#57 = CARTESIAN_POINT ( 'NONE',  ( 4.720260686806063697E-15, -1.655644576108057529E-16, 1.351936392812018717 ) ) ;
#58 = DIRECTION ( 'NONE',  ( -3.491481338843133355E-15, 1.224646799147353207E-16, -1.000000000000000000 ) ) ;
#59 = DIRECTION ( 'NONE',  ( -3.491481338843133355E-15, 1.224646799147353207E-16, -1.000000000000000000 ) ) ;
#60 = DIRECTION ( 'NONE',  ( -3.491481338843133355E-15, 1.224646799147353207E-16, -1.000000000000000000 ) ) ;
#61 = PERSON_AND_ORGANIZATION ( #229, #48 ) ;
#62 = DATE_AND_TIME ( #117, #180 ) ;
#63 = DIRECTION ( 'NONE',  ( 1.798245827342160317E-15, -0.8571673007021098911, 0.5150380749100582634 ) ) ;
#64 = LOCAL_TIME ( 9, 21, 56.00000000000000000, #110 ) ;
#65 = FACE_OUTER_BOUND ( 'NONE', #333, .T. ) ;
#66 = CARTESIAN_POINT ( 'NONE',  ( 0.0000000000000000000, 0.0000000000000000000, 0.0000000000000000000 ) ) ;
#67 = COORDINATED_UNIVERSAL_TIME_OFFSET ( 1, 0, .AHEAD. ) ;
#68 = CARTESIAN_POINT ( 'NONE',  ( 2.007601769834801995E-13, 2.249999999999988898, 57.50000000000000711 ) ) ;
#69 = APPROVAL_DATE_TIME ( #113, #155 ) ;
#70 = DIRECTION ( 'NONE',  ( 0.0000000000000000000, 1.000000000000000000, 0.0000000000000000000 ) ) ;
#71 = AXIS2_PLACEMENT_3D ( 'NONE', #290, #56, #115 ) ;
#72 = AXIS2_PLACEMENT_3D ( 'NONE', #128, #74, #173 ) ;
#73 = ADVANCED_FACE ( 'NONE', ( #316 ), #276, .T. ) ;
#74 = DIRECTION ( 'NONE',  ( -3.491481338843133355E-15, 1.224646799147353207E-16, -1.000000000000000000 ) ) ;
#75 = VERTEX_POINT ( 'NONE', #239 ) ;
#76 = DIRECTION ( 'NONE',  ( -3.491481338843133355E-15, 1.224646799147353207E-16, -1.000000000000000000 ) ) ;
#77 = EDGE_LOOP ( 'NONE', ( #169, #256 ) ) ;
#78 = CARTESIAN_POINT ( 'NONE',  ( 2.025059176529017346E-13, -7.102951435054648059E-15, 58.00000000000000000 ) ) ;
#79 = DIRECTION ( 'NONE',  ( -3.491481338843133355E-15, 1.224646799147353207E-16, -1.000000000000000000 ) ) ;
#80 = PERSON_AND_ORGANIZATION ( #229, #48 ) ;
#81 =( NAMED_UNIT ( * ) SI_UNIT ( $, .STERADIAN. ) SOLID_ANGLE_UNIT ( ) );
#82 = AXIS2_PLACEMENT_3D ( 'NONE', #41, #60, #121 ) ;
#83 = APPROVAL_PERSON_ORGANIZATION ( #61, #17, #160 ) ;
#84 = ORIENTED_EDGE ( 'NONE', *, *, #159, .F. ) ;
#85 = PLANE ( 'NONE',  #47 ) ;
#86 = LINE ( 'NONE', #323, #1 ) ;
#87 = APPLICATION_PROTOCOL_DEFINITION ( 'international standard', 'config_control_design', 1994, #135 ) ;
#88 = DIRECTION ( 'NONE',  ( 3.491481338843133355E-15, -1.224646799147353207E-16, 1.000000000000000000 ) ) ;
#89 = DIRECTION ( 'NONE',  ( 3.491481338843133355E-15, -1.224646799147353207E-16, 1.000000000000000000 ) ) ;
#90 = VECTOR ( 'NONE', #166, 1000.000000000000000 ) ;
#91 = EDGE_CURVE ( 'NONE', #280, #4, #158, .T. ) ;
#92 = LOCAL_TIME ( 9, 21, 56.00000000000000000, #22 ) ;
#93 = PERSON_AND_ORGANIZATION ( #229, #48 ) ;
#94 = ORIENTED_EDGE ( 'NONE', *, *, #151, .T. ) ;
#95 = VERTEX_POINT ( 'NONE', #219 ) ;
#96 = ADVANCED_FACE ( 'NONE', ( #318 ), #183, .T. ) ;
#97 = CC_DESIGN_APPROVAL ( #170, ( #211 ) ) ;
#98 = ORIENTED_EDGE ( 'NONE', *, *, #10, .T. ) ;
#99 = CARTESIAN_POINT ( 'NONE',  ( 1.320789660711364225E-13, -2.249999999999993339, 18.00000000000000000 ) ) ;
#100 = EDGE_LOOP ( 'NONE', ( #20, #98, #21, #141 ) ) ;
#101 = ADVANCED_FACE ( 'NONE', ( #11 ), #85, .F. ) ;
#102 = DIRECTION ( 'NONE',  ( -3.491481338843133355E-15, 1.224646799147353207E-16, -1.000000000000000000 ) ) ;
#103 = ADVANCED_FACE ( 'NONE', ( #9 ), #259, .T. ) ;
#104 = AXIS2_PLACEMENT_3D ( 'NONE', #187, #36, #248 ) ;
#105 = LINE ( 'NONE', #157, #197 ) ;
#106 = APPROVAL_STATUS ( 'not_yet_approved' ) ;
#107 = ORIENTED_EDGE ( 'NONE', *, *, #91, .F. ) ;
#108 = ORIENTED_EDGE ( 'NONE', *, *, #162, .T. ) ;
#109 = DIRECTION ( 'NONE',  ( 0.0000000000000000000, 1.000000000000000000, 0.0000000000000000000 ) ) ;
#110 = COORDINATED_UNIVERSAL_TIME_OFFSET ( 1, 0, .AHEAD. ) ;
#111 = AXIS2_PLACEMENT_3D ( 'NONE', #26, #89, #195 ) ;
#112 = CARTESIAN_POINT ( 'NONE',  ( 6.284666409917640040E-14, -2.204364238465235428E-15, 18.00000000000000000 ) ) ;
#113 = DATE_AND_TIME ( #296, #64 ) ;
#114 = APPROVAL_ROLE ( '' ) ;
#115 = DIRECTION ( 'NONE',  ( 4.275831445896959482E-31, 1.000000000000000000, 1.224646799147353207E-16 ) ) ;
#116 = ORIENTED_EDGE ( 'NONE', *, *, #282, .T. ) ;
#117 = CALENDAR_DATE ( 2021, 3, 9 ) ;
#118 = EDGE_LOOP ( 'NONE', ( #300, #94, #7, #243 ) ) ;
#119 = AXIS2_PLACEMENT_3D ( 'NONE', #202, #12, #272 ) ;
#120 = PERSON_AND_ORGANIZATION_ROLE ( 'design_supplier' ) ;
#121 = DIRECTION ( 'NONE',  ( 4.275831445896958607E-31, 1.000000000000000000, 1.224646799147353454E-16 ) ) ;
#122 = ADVANCED_BREP_SHAPE_REPRESENTATION ( '303', ( #283, #49, #28 ), #226 ) ;
#123 = DATE_AND_TIME ( #231, #14 ) ;
#124 = CARTESIAN_POINT ( 'NONE',  ( 2.025059176529017346E-13, 1.749999999999989342, 58.00000000000000000 ) ) ;
#125 = CARTESIAN_POINT ( 'NONE',  ( 6.284666409917640040E-14, -2.204364238465235428E-15, 18.00000000000000000 ) ) ;
#126 = DATE_TIME_ROLE ( 'classification_date' ) ;
#127 = ORIENTED_EDGE ( 'NONE', *, *, #145, .F. ) ;
#128 = CARTESIAN_POINT ( 'NONE',  ( 4.720260686806063697E-15, -1.655644576108057529E-16, 1.351936392812018717 ) ) ;
#129 = ADVANCED_FACE ( 'NONE', ( #65 ), #270, .T. ) ;
#130 = ORIENTED_EDGE ( 'NONE', *, *, #145, .T. ) ;
#131 = CARTESIAN_POINT ( 'NONE',  ( 4.995806216614217780E-15, 2.249999999999988898, 1.351936392812018939 ) ) ;
#132 = SHAPE_DEFINITION_REPRESENTATION ( #15, #122 ) ;
#133 = AXIS2_PLACEMENT_3D ( 'NONE', #213, #139, #6 ) ;
#134 = LOCAL_TIME ( 9, 21, 56.00000000000000000, #67 ) ;
#135 = APPLICATION_CONTEXT ( 'configuration controlled 3d designs of mechanical parts and assemblies' ) ;
#136 = ADVANCED_FACE ( 'NONE', ( #298 ), #244, .T. ) ;
#137 = CARTESIAN_POINT ( 'NONE',  ( 2.007601769834801995E-13, -7.041719095097282063E-15, 57.50000000000000711 ) ) ;
#138 = ORIENTED_EDGE ( 'NONE', *, *, #151, .F. ) ;
#139 = DIRECTION ( 'NONE',  ( -3.491481338843133355E-15, 1.224646799147353207E-16, -1.000000000000000000 ) ) ;
#140 = ADVANCED_FACE ( 'NONE', ( #221 ), #196, .T. ) ;
#141 = ORIENTED_EDGE ( 'NONE', *, *, #230, .F. ) ;
#142 = CARTESIAN_POINT ( 'NONE',  ( 4.720260686806063697E-15, -1.655644576108057529E-16, 1.351936392812018717 ) ) ;
#143 = AXIS2_PLACEMENT_3D ( 'NONE', #193, #59, #294 ) ;
#144 = DIRECTION ( 'NONE',  ( 3.491481338843133355E-15, -1.224646799147353207E-16, 1.000000000000000000 ) ) ;
#145 = EDGE_CURVE ( 'NONE', #95, #304, #43, .T. ) ;
#146 = CARTESIAN_POINT ( 'NONE',  ( 6.284666409917640040E-14, 2.249999999999988898, 18.00000000000000000 ) ) ;
#147 = FACE_OUTER_BOUND ( 'NONE', #217, .T. ) ;
#148 = PERSON_AND_ORGANIZATION_ROLE ( 'classification_officer' ) ;
#149 = ORIENTED_EDGE ( 'NONE', *, *, #261, .T. ) ;
#150 = DIRECTION ( 'NONE',  ( -3.491481338843133355E-15, 1.224646799147353207E-16, -1.000000000000000000 ) ) ;
#151 = EDGE_CURVE ( 'NONE', #4, #280, #179, .T. ) ;
#152 = EDGE_LOOP ( 'NONE', ( #154, #149, #225, #234 ) ) ;
#153 = ORIENTED_EDGE ( 'NONE', *, *, #182, .F. ) ;
#154 = ORIENTED_EDGE ( 'NONE', *, *, #216, .T. ) ;
#155 = APPROVAL ( #106, 'UNSPECIFIED' ) ;
#156 = DIRECTION ( 'NONE',  ( -3.491481338843133355E-15, 1.224646799147353207E-16, -1.000000000000000000 ) ) ;
#157 = CARTESIAN_POINT ( 'NONE',  ( 2.027202308427525400E-13, -1.750000000000003775, 58.00000000000000000 ) ) ;
#158 = CIRCLE ( 'NONE', #133, 1.749999999999996669 ) ;
#159 = EDGE_CURVE ( 'NONE', #312, #329, #86, .T. ) ;
#160 = APPROVAL_ROLE ( '' ) ;
#161 = DIRECTION ( 'NONE',  ( -3.491481338843133355E-15, 1.224646799147353207E-16, -1.000000000000000000 ) ) ;
#162 = EDGE_CURVE ( 'NONE', #320, #35, #163, .T. ) ;
#163 = LINE ( 'NONE', #315, #291 ) ;
#164 = CIRCLE ( 'NONE', #172, 2.249999999999996003 ) ;
#165 = DIRECTION ( 'NONE',  ( -3.423875456688436032E-31, -1.000000000000000000, -9.637352644315642081E-17 ) ) ;
#166 = DIRECTION ( 'NONE',  ( -3.491481338843133355E-15, 1.224646799147353207E-16, -1.000000000000000000 ) ) ;
#167 = FACE_OUTER_BOUND ( 'NONE', #269, .T. ) ;
#168 = PERSON_AND_ORGANIZATION ( #229, #48 ) ;
#169 = ORIENTED_EDGE ( 'NONE', *, *, #257, .T. ) ;
#170 = APPROVAL ( #31, 'UNSPECIFIED' ) ;
#171 = VECTOR ( 'NONE', #76, 1000.000000000000000 ) ;
#172 = AXIS2_PLACEMENT_3D ( 'NONE', #137, #46, #238 ) ;
#173 = DIRECTION ( 'NONE',  ( 3.423875456688436032E-31, 1.000000000000000000, 9.637352644315642081E-17 ) ) ;
#174 =( LENGTH_UNIT ( ) NAMED_UNIT ( * ) SI_UNIT ( .MILLI., .METRE. ) );
#175 = PRODUCT_RELATED_PRODUCT_CATEGORY ( 'detail', '', ( #309 ) ) ;
#176 = CARTESIAN_POINT ( 'NONE',  ( 9.620620753268114388E-31, 2.249999999999989786, 2.755455298081532452E-16 ) ) ;
#177 = ORIENTED_EDGE ( 'NONE', *, *, #216, .F. ) ;
#178 = APPROVAL_DATE_TIME ( #286, #170 ) ;
#179 = CIRCLE ( 'NONE', #271, 1.749999999999996669 ) ;
#180 = LOCAL_TIME ( 9, 21, 56.00000000000000000, #326 ) ;
#181 = LINE ( 'NONE', #131, #44 ) ;
#182 = EDGE_CURVE ( 'NONE', #312, #274, #181, .T. ) ;
#183 = CYLINDRICAL_SURFACE ( 'NONE', #71, 2.249999999999989786 ) ;
#184 = VECTOR ( 'NONE', #275, 1000.000000000000000 ) ;
#185 = APPROVAL_STATUS ( 'not_yet_approved' ) ;
#186 = PERSON_AND_ORGANIZATION ( #229, #48 ) ;
#187 = CARTESIAN_POINT ( 'NONE',  ( 0.0000000000000000000, 0.0000000000000000000, 0.0000000000000000000 ) ) ;
#188 = EDGE_CURVE ( 'NONE', #75, #320, #164, .T. ) ;
#189 = ORIENTED_EDGE ( 'NONE', *, *, #230, .T. ) ;
#190 = DIRECTION ( 'NONE',  ( -4.275831445896958607E-31, -1.000000000000000000, -1.224646799147353207E-16 ) ) ;
#191 = CARTESIAN_POINT ( 'NONE',  ( 2.025059176529017346E-13, 1.749999999999989342, 58.00000000000000000 ) ) ;
#192 = ORIENTED_EDGE ( 'NONE', *, *, #3, .F. ) ;
#193 = CARTESIAN_POINT ( 'NONE',  ( 2.025059176529017346E-13, -7.102951435054648059E-15, 58.00000000000000000 ) ) ;
#194 = EDGE_LOOP ( 'NONE', ( #247, #127 ) ) ;
#195 = DIRECTION ( 'NONE',  ( -4.275831445896958607E-31, -1.000000000000000000, -1.224646799147353207E-16 ) ) ;
#196 = CONICAL_SURFACE ( 'NONE', #8, 2.249999999999988898, 1.029744258676649649 ) ;
#197 = VECTOR ( 'NONE', #29, 999.9999999999998863 ) ;
#198 = VERTEX_POINT ( 'NONE', #99 ) ;
#199 = SECURITY_CLASSIFICATION_LEVEL ( 'unclassified' ) ;
#200 = CYLINDRICAL_SURFACE ( 'NONE', #82, 2.249999999999993339 ) ;
#201 = EDGE_CURVE ( 'NONE', #304, #95, #307, .T. ) ;
#202 = CARTESIAN_POINT ( 'NONE',  ( 6.284666409917640040E-14, -2.204364238465235428E-15, 18.00000000000000000 ) ) ;
#203 = ORIENTED_EDGE ( 'NONE', *, *, #3, .T. ) ;
#204 = COORDINATED_UNIVERSAL_TIME_OFFSET ( 1, 0, .AHEAD. ) ;
#205 = CLOSED_SHELL ( 'NONE', ( #73, #52, #101, #129, #136, #292 ) ) ;
#206 = CC_DESIGN_APPROVAL ( #17, ( #42 ) ) ;
#207 = CC_DESIGN_PERSON_AND_ORGANIZATION_ASSIGNMENT ( #268, #288, ( #309 ) ) ;
#208 = EDGE_LOOP ( 'NONE', ( #153, #305, #203 ) ) ;
#209 = CARTESIAN_POINT ( 'NONE',  ( 2.755455298081527028E-16, -2.249999999999993339, -2.755455298081545764E-16 ) ) ;
#210 = EDGE_LOOP ( 'NONE', ( #84, #311, #116 ) ) ;
#211 = PRODUCT_DEFINITION_FORMATION_WITH_SPECIFIED_SOURCE ( 'ANY', '', #309, .NOT_KNOWN. ) ;
#212 = DIRECTION ( 'NONE',  ( 0.0000000000000000000, 1.000000000000000000, 0.0000000000000000000 ) ) ;
#213 = CARTESIAN_POINT ( 'NONE',  ( 2.025059176529017346E-13, -7.102951435054648059E-15, 58.00000000000000000 ) ) ;
#214 = DIRECTION ( 'NONE',  ( 3.423875456688436032E-31, 1.000000000000000000, 9.637352644315642081E-17 ) ) ;
#215 = CC_DESIGN_APPROVAL ( #155, ( #302 ) ) ;
#216 = EDGE_CURVE ( 'NONE', #320, #75, #279, .T. ) ;
#217 = EDGE_LOOP ( 'NONE', ( #107, #138 ) ) ;
#218 = APPROVAL_ROLE ( '' ) ;
#219 = CARTESIAN_POINT ( 'NONE',  ( 3.405900792279935576E-14, -2.249999999999993339, 18.00000000000000000 ) ) ;
#220 = PERSON_AND_ORGANIZATION_ROLE ( 'creator' ) ;
#221 = FACE_OUTER_BOUND ( 'NONE', #210, .T. ) ;
#222 = CIRCLE ( 'NONE', #18, 2.249999999999991118 ) ;
#223 = DIRECTION ( 'NONE',  ( 0.0000000000000000000, 1.000000000000000000, 0.0000000000000000000 ) ) ;
#224 = CARTESIAN_POINT ( 'NONE',  ( 6.284666409917640040E-14, 1.687229755494579682E-32, 18.00000000000000000 ) ) ;
#225 = ORIENTED_EDGE ( 'NONE', *, *, #257, .F. ) ;
#226 =( GEOMETRIC_REPRESENTATION_CONTEXT ( 3 ) GLOBAL_UNCERTAINTY_ASSIGNED_CONTEXT ( ( #308 ) ) GLOBAL_UNIT_ASSIGNED_CONTEXT ( ( #174, #281, #81 ) ) REPRESENTATION_CONTEXT ( 'NONE', 'WORKASPACE' ) );
#227 = EDGE_CURVE ( 'NONE', #4, #75, #105, .T. ) ;
#228 = PLANE ( 'NONE',  #260 ) ;
#229 = PERSON ( 'UNSPECIFIED', 'UNSPECIFIED', 'UNSPECIFIED', ('UNSPECIFIED'), ('UNSPECIFIED'), ('UNSPECIFIED') ) ;
#230 = EDGE_CURVE ( 'NONE', #304, #274, #242, .T. ) ;
#231 = CALENDAR_DATE ( 2021, 3, 9 ) ;
#232 = AXIS2_PLACEMENT_3D ( 'NONE', #57, #102, #214 ) ;
#233 = DIRECTION ( 'NONE',  ( -3.491481338843133355E-15, 1.224646799147353207E-16, -1.000000000000000000 ) ) ;
#234 = ORIENTED_EDGE ( 'NONE', *, *, #162, .F. ) ;
#235 = CARTESIAN_POINT ( 'NONE',  ( 6.284666409917640040E-14, -2.204364238465235428E-15, 18.00000000000000000 ) ) ;
#236 = CC_DESIGN_DATE_AND_TIME_ASSIGNMENT ( #55, #5, ( #42 ) ) ;
#237 = AXIS2_PLACEMENT_3D ( 'NONE', #53, #58, #70 ) ;
#238 = DIRECTION ( 'NONE',  ( 0.0000000000000000000, 1.000000000000000000, 0.0000000000000000000 ) ) ;
#239 = CARTESIAN_POINT ( 'NONE',  ( 1.320789660711362963E-13, -2.250000000000002665, 57.50000000000000711 ) ) ;
#240 = CIRCLE ( 'NONE', #72, 2.249999999999988898 ) ;
#241 = DIRECTION ( 'NONE',  ( 0.0000000000000000000, 0.0000000000000000000, 1.000000000000000000 ) ) ;
#242 = LINE ( 'NONE', #176, #25 ) ;
#243 = ORIENTED_EDGE ( 'NONE', *, *, #188, .F. ) ;
#244 = CONICAL_SURFACE ( 'NONE', #143, 1.749999999999996669, 0.7853981633974541632 ) ;
#245 = APPROVAL_PERSON_ORGANIZATION ( #186, #170, #218 ) ;
#246 = CARTESIAN_POINT ( 'NONE',  ( 2.018779766780204247E-13, -1.750000000000003775, 58.00000000000000000 ) ) ;
#247 = ORIENTED_EDGE ( 'NONE', *, *, #201, .F. ) ;
#248 = DIRECTION ( 'NONE',  ( 4.275831445896958607E-31, 1.000000000000000000, 1.224646799147353454E-16 ) ) ;
#249 = LINE ( 'NONE', #37, #90 ) ;
#250 = DIRECTION ( 'NONE',  ( 4.275831445896959482E-31, 1.000000000000000000, 1.224646799147353207E-16 ) ) ;
#251 = FACE_OUTER_BOUND ( 'NONE', #152, .T. ) ;
#252 = CC_DESIGN_PERSON_AND_ORGANIZATION_ASSIGNMENT ( #93, #220, ( #42 ) ) ;
#253 = CC_DESIGN_DATE_AND_TIME_ASSIGNMENT ( #123, #126, ( #302 ) ) ;
#254 = CARTESIAN_POINT ( 'NONE',  ( 6.284666409917640040E-14, 2.249999999999988898, 18.00000000000000000 ) ) ;
#255 = FACE_OUTER_BOUND ( 'NONE', #194, .T. ) ;
#256 = ORIENTED_EDGE ( 'NONE', *, *, #32, .T. ) ;
#257 = EDGE_CURVE ( 'NONE', #35, #198, #222, .T. ) ;
#258 = DIRECTION ( 'NONE',  ( -3.491481338843133355E-15, 1.224646799147353207E-16, -1.000000000000000000 ) ) ;
#259 = CONICAL_SURFACE ( 'NONE', #306, 2.249999999999988898, 1.029744258676649649 ) ;
#260 = AXIS2_PLACEMENT_3D ( 'NONE', #13, #150, #330 ) ;
#261 = EDGE_CURVE ( 'NONE', #75, #198, #277, .T. ) ;
#262 = DIRECTION ( 'NONE',  ( 0.0000000000000000000, 1.000000000000000000, 0.0000000000000000000 ) ) ;
#263 = AXIS2_PLACEMENT_3D ( 'NONE', #66, #266, #250 ) ;
#264 = ORIENTED_EDGE ( 'NONE', *, *, #10, .F. ) ;
#265 = APPROVAL_DATE_TIME ( #62, #17 ) ;
#266 = DIRECTION ( 'NONE',  ( -3.491481338843133355E-15, 1.224646799147353207E-16, -1.000000000000000000 ) ) ;
#267 = DIRECTION ( 'NONE',  ( -3.491481338843133355E-15, 1.224646799147353207E-16, -1.000000000000000000 ) ) ;
#268 = PERSON_AND_ORGANIZATION ( #229, #48 ) ;
#269 = EDGE_LOOP ( 'NONE', ( #264, #130, #189, #192 ) ) ;
#270 = CYLINDRICAL_SURFACE ( 'NONE', #104, 2.249999999999993339 ) ;
#271 = AXIS2_PLACEMENT_3D ( 'NONE', #322, #267, #223 ) ;
#272 = DIRECTION ( 'NONE',  ( 0.0000000000000000000, 1.000000000000000000, 0.0000000000000000000 ) ) ;
#273 = CARTESIAN_POINT ( 'NONE',  ( 0.0000000000000000000, 0.0000000000000000000, 0.0000000000000000000 ) ) ;
#274 = VERTEX_POINT ( 'NONE', #332 ) ;
#275 = DIRECTION ( 'NONE',  ( -2.468850131082249961E-15, 0.7071067811865517916, -0.7071067811865432429 ) ) ;
#276 = CONICAL_SURFACE ( 'NONE', #34, 1.749999999999996669, 0.7853981633974541632 ) ;
#277 = LINE ( 'NONE', #209, #171 ) ;
#278 = PERSON_AND_ORGANIZATION ( #229, #48 ) ;
#279 = CIRCLE ( 'NONE', #237, 2.249999999999996003 ) ;
#280 = VERTEX_POINT ( 'NONE', #124 ) ;
#281 =( NAMED_UNIT ( * ) PLANE_ANGLE_UNIT ( ) SI_UNIT ( $, .RADIAN. ) );
#282 = EDGE_CURVE ( 'NONE', #274, #329, #240, .T. ) ;
#283 = MANIFOLD_SOLID_BREP ( 'Corps-Déplacer/Copier1[1]', #205 ) ;
#284 = PERSON_AND_ORGANIZATION_ROLE ( 'creator' ) ;
#285 = CC_DESIGN_SECURITY_CLASSIFICATION ( #302, ( #211 ) ) ;
#286 = DATE_AND_TIME ( #335, #92 ) ;
#287 = DIRECTION ( 'NONE',  ( 1.903218546456022717E-15, 0.8571673007021097801, 0.5150380749100585964 ) ) ;
#288 = PERSON_AND_ORGANIZATION_ROLE ( 'design_owner' ) ;
#289 = ORIENTED_EDGE ( 'NONE', *, *, #261, .F. ) ;
#290 = CARTESIAN_POINT ( 'NONE',  ( 0.0000000000000000000, 0.0000000000000000000, 0.0000000000000000000 ) ) ;
#291 = VECTOR ( 'NONE', #79, 1000.000000000000000 ) ;
#292 = ADVANCED_FACE ( 'NONE', ( #147 ), #228, .F. ) ;
#293 = APPLICATION_PROTOCOL_DEFINITION ( 'international standard', 'config_control_design', 1994, #50 ) ;
#294 = DIRECTION ( 'NONE',  ( 0.0000000000000000000, 1.000000000000000000, 0.0000000000000000000 ) ) ;
#295 = CARTESIAN_POINT ( 'NONE',  ( 0.0000000000000000000, 0.0000000000000000000, 0.0000000000000000000 ) ) ;
#296 = CALENDAR_DATE ( 2021, 3, 9 ) ;
#297 = EDGE_LOOP ( 'NONE', ( #30, #19, #177, #54 ) ) ;
#298 = FACE_OUTER_BOUND ( 'NONE', #118, .T. ) ;
#299 = CC_DESIGN_PERSON_AND_ORGANIZATION_ASSIGNMENT ( #278, #120, ( #211 ) ) ;
#300 = ORIENTED_EDGE ( 'NONE', *, *, #227, .F. ) ;
#301 = DIRECTION ( 'NONE',  ( 3.491481338843133355E-15, -1.224646799147353207E-16, 1.000000000000000000 ) ) ;
#302 = SECURITY_CLASSIFICATION ( '', '', #199 ) ;
#303 = CYLINDRICAL_SURFACE ( 'NONE', #263, 2.249999999999989786 ) ;
#304 = VERTEX_POINT ( 'NONE', #254 ) ;
#305 = ORIENTED_EDGE ( 'NONE', *, *, #159, .T. ) ;
#306 = AXIS2_PLACEMENT_3D ( 'NONE', #327, #88, #33 ) ;
#307 = CIRCLE ( 'NONE', #24, 2.249999999999991118 ) ;
#308 = UNCERTAINTY_MEASURE_WITH_UNIT (LENGTH_MEASURE( 1.000000000000000082E-05 ), #174, 'distance_accuracy_value', 'NONE');
#309 = PRODUCT ( '303', '303', '', ( #2 ) ) ;
#310 = ADVANCED_FACE ( 'NONE', ( #255 ), #16, .T. ) ;
#311 = ORIENTED_EDGE ( 'NONE', *, *, #182, .T. ) ;
#312 = VERTEX_POINT ( 'NONE', #273 ) ;
#313 = DESIGN_CONTEXT ( 'detailed design', #135, 'design' ) ;
#314 = CC_DESIGN_PERSON_AND_ORGANIZATION_ASSIGNMENT ( #168, #148, ( #302 ) ) ;
#315 = CARTESIAN_POINT ( 'NONE',  ( 9.620620753268128401E-31, 2.249999999999993339, 2.755455298081536889E-16 ) ) ;
#316 = FACE_OUTER_BOUND ( 'NONE', #297, .T. ) ;
#317 = ADVANCED_FACE ( 'NONE', ( #167 ), #303, .T. ) ;
#318 = FACE_OUTER_BOUND ( 'NONE', #100, .T. ) ;
#319 = CLOSED_SHELL ( 'NONE', ( #96, #140, #103, #317, #310 ) ) ;
#320 = VERTEX_POINT ( 'NONE', #68 ) ;
#321 = CALENDAR_DATE ( 2021, 3, 9 ) ;
#322 = CARTESIAN_POINT ( 'NONE',  ( 2.025059176529017346E-13, -7.102951435054648059E-15, 58.00000000000000000 ) ) ;
#323 = CARTESIAN_POINT ( 'NONE',  ( 4.720260686806062908E-15, -2.249999999999988898, 1.351936392812018495 ) ) ;
#324 = DIRECTION ( 'NONE',  ( 1.000000000000000000, 0.0000000000000000000, 0.0000000000000000000 ) ) ;
#325 = CC_DESIGN_PERSON_AND_ORGANIZATION_ASSIGNMENT ( #51, #284, ( #211 ) ) ;
#326 = COORDINATED_UNIVERSAL_TIME_OFFSET ( 1, 0, .AHEAD. ) ;
#327 = CARTESIAN_POINT ( 'NONE',  ( 4.720260686806063697E-15, -1.655644576108057529E-16, 1.351936392812018717 ) ) ;
#328 = LINE ( 'NONE', #191, #184 ) ;
#329 = VERTEX_POINT ( 'NONE', #38 ) ;
#330 = DIRECTION ( 'NONE',  ( 4.275831445896958607E-31, 1.000000000000000000, 1.224646799147353207E-16 ) ) ;
#331 = AXIS2_PLACEMENT_3D ( 'NONE', #112, #161, #109 ) ;
#332 = CARTESIAN_POINT ( 'NONE',  ( 4.995806216614217780E-15, 2.249999999999988898, 1.351936392812018939 ) ) ;
#333 = EDGE_LOOP ( 'NONE', ( #289, #40, #108, #45 ) ) ;
#334 = DIRECTION ( 'NONE',  ( -3.491481338843133355E-15, 1.224646799147353207E-16, -1.000000000000000000 ) ) ;
#335 = CALENDAR_DATE ( 2021, 3, 9 ) ;
#336 = APPROVAL_PERSON_ORGANIZATION ( #80, #155, #114 ) ;
#337 = DIRECTION ( 'NONE',  ( 0.0000000000000000000, 1.000000000000000000, 0.0000000000000000000 ) ) ;
ENDSEC;
END-ISO-10303-21;
